Oops, an error
Loading. Please wait.

Zee Deveel Tab

version 2
version 2

Whole song

Interactive

964 views 1 this week
no commentswrite comment
1 2 3 4 5
2 more votes to show rating
add to favorites
launch autoscroll
font size
0
reset
how to read this tab
guitar tuner
×
Best way to learn
"Zee Deveel"
Autoscroll
slow
fast
+/-
esc
set tempo
stop
-----------------------------------------------------------------------
			     Zee Deveel-Incubus
-----------------------------------------------------------------------
Tabbed by:MusicFreak78
Email:Dcharvoz@houston.rr.com
	
Tuning:normal

   Intro/Main riff.

e|----------------------------------------------------------------
B|----------------------------------------------------------------
G|------44--1-6--13-----------------------------------------------
D|------00--2-x--x------------------------------------------------
A|------xx--2-4--11-----------------------------------------------
E|-0/3—-33--0-----------------------------------------------------

      PreChorus
e|----------------55----55----------------------------------------
B|---55----55-----55----55----------------------------------------
G|---66----66-----66----66----------------------------------------
D|---66----66-----77----77----------------------------------------
A|-4-44--3-33-----77----77----------------------------------------
E|--------------5-55--5-55----------------------------------------

     Chorus
e|--------------------------------------------------------
B|--------------------------------------------------------
G|-9999-8888-6666-1-1-------------------------------------
D|-xxxx-xxxx-xxxx-252-------------------------------------
A|-7777-6666-4444-252-------------------------------------
E|-0000-----------030-------------------------------------

    Solo
e|-----14—--14/15-14-12--14—-14/15-12-----------------------------
B|--0---------------------------------15-14-12/14-12-14/15-14-----
G|----------------------------------------------------------------
D|----------------------------------------------------------------
A|----------------------------------------------------------------
E|----------------------------------------------------------------

e|--12-14/15-14-12/20-12-12-11/19-11/12-18--11/18-11/18-11--11/18/11-
B|-------------------------------------------------------------------
G|-------------------------------------------------------------------
D|-------------------------------------------------------------------
A|-------------------------------------------------------------------
E|-------------------------- ----------------------------------------

e|-12-11-11/17-17-12/11/17-13-13-13/14/13-9/10---------------------
B|-----------------------------------------------------------------
G|-----------------------------------------------------------------
D|-----------------------------------------------------------------
A|-----------------------------------------------------------------
E|-----------------------------------------------------------------
  At this part in the solo he starts doing something weird with his guitar,
which I don't think I can tab out.

  I think that's basically the song... that solo probably has some wrong parts,
questions and help with that are welcome.
Suggest correction
Give kudos to tab author, rate the tab!
1 2 3 4 5
comments
print report bad tab
guest
You may want to rate the tab now too:
select rating
Wanna post a correction for this tab? Suggest correction