Oops, an error
Loading. Please wait.

Fixing A Broken Heart Tab

version 1
version 1

Whole song

89,395 views 48 this week
2 commentsread comments
1 2 3 4 5
x 9
add to favorites
launch autoscroll
font size
0
reset
how to read this tab
guitar tuner
×
Best way to learn
"Fixing A Broken Heart"
Autoscroll
slow
fast
+/-
esc
set tempo
stop
Author
[Intro]
e|------------------------------|
B|--------2-----3-----------2---|
G|--------------------2---------|
D|-----2-----2-----2-----2------|
A|--0---------------------------|
E|------------------------------|

[Verse 1]
 (guitar 1 enters here...........)  
       There was nothing to say the day you left
        A           E         F#m
e|---------------------------------------------------------------------|
B|---------------------------2-----------0-----------------------------|
G|------------------------------2-----------1--------2-----------------|
D|------------------------2-----------2-----------4-----4-----4--------|
A|---------------------0-----------2-----------0-----------0-----------|
E|---------------------------------------------------------------------|

              (guitar 2 plays this background right after the F#m riff)
e|---------------------2~~-----|
B|-----------------------------|
G|-----------------------------|
D|-----------------------------|
A|-----------------------------|
E|-----------------------------|

     I just filled the suitcase ...

                    Bm        A              E
e|---------------------------------------------------------------------|
B|---------------------3-----------2-----------------------------------|
G|------------------------4-----------2--------1h2--1~-----------------|
D|------------------4-----------2-----------2--------------------------|
A|---------------0-----------0-----------2-----------------------------|
E|---------------------------------------------------------------------|
        
          (guitar 2 plays this riff right after the g string vibrato)
e|-----------0h2~~------------|
B|--0--2--5-------------------|
G|----------------------------|
D|----------------------------|
A|----------------------------|
E|----------------------------| 

              I hailed a taxi ..

        A           E         F#m
e|---------------------------------------------------------------------|
B|---------------------------2-----------0-----------------------------|
G|------------------------------2-----------1--------2-----------------|
D|------------------------2-----------2-----------4-----4-----4--------|
A|---------------------0-----------2-----------0-----------0-----------|
E|---------------------------------------------------------------------|

              (guitar 2 plays this background right after the F#m riff)
e|---------------------2~~-----|
B|-----------------------------|
G|-----------------------------|
D|-----------------------------|
A|-----------------------------|
E|-----------------------------|
    Looking for some place to ...

                    Bm        A              E
e|---------------------------------------------------------------------|
B|---------------------3-----------2-----------------------------------|
G|------------------------4-----------2--------1h2--1~-----------------|
D|------------------4-----------2-----------2--------------------------|
A|---------------0-----------0-----------2-----------------------------|
E|---------------------------------------------------------------------|
                 
[Pre-Chorus]
       Then like an ...
          F#m          E           A
e|---------------------------------------------------------|
B|---------2-----------0-----------2h3--2------------------|
G|------------2-----------1--------2----2------------------|
D|------2-----------2-----------2--------------------------|
A|---4-----------2-----------0-----------------------------|
E|---------------------------------------------------------|           
          
       I turned around and ...
          Bm               A
e|---------------------------------------------------------|
B|---------3------------------2----------------------------|
G|------------4------------------2~~-----------------------|
D|------4------------------2-------------------------------|
A|---0------------------0----------------------------------|
E|---------------------------------------------------------|

[Chorus]
You really know where to start............
       A                 E 
e|---------------------------------------------------|
B|----------------------------2--------------0-------|
G|-------------------------------2--------------1----|
D|-------------------------2--------------2----------|
A|----------------------0--------------2-------------|
E|---------------------------------------------------|

       Fixing    a      ..
        F#m               A                 Bm               A
e|------------------------------------------------------------------------|
B|-----------2---------------2-----------------3----------------2---------|
G|--------------4---------------2-----------------4----------------2------|
D|--------4---------------2-----------------4----------------2------------|
A|-----0---------------0-----------------0----------------0---------------|
E|------------------------------------------------------------------------|

       You really ...
 E
e|-----------0-------------------------------|
B|-----0--0--0--0----------------------------|
G|-----1--1--1--1----------------------------|
D|-----2--2--2--2----------------------------|     
A|-----2--2-----2----------------------------|
E|-----x--x-----x----------------------------|

     Your emotional tools can ...
        A           E         F#m
e|---------------------------------------------------------------------|
B|---------------------------2-----------0-----------------------------|
G|------------------------------2-----------1--------2-----------------|
D|------------------------2-----------2-----------4-----4-----4--------|
A|---------------------0-----------2-----------0-----------0-----------|
E|---------------------------------------------------------------------|

                (guitar 2 plays this background right after the F#m riff)
e|---------------------2~~-----|
B|-----------------------------|
G|-----------------------------|
D|-----------------------------|
A|-----------------------------|
E|-----------------------------|

       Whose dreams have ...
                    Bm        A              E
e|---------------------------------------------------------------------|
B|---------------------3-----------2-----------------------------------|
G|------------------------4-----------2--------1h2--1~-----------------|
D|------------------4-----------2-----------2--------------------------|
A|---------------0-----------0-----------2-----------------------------|
E|---------------------------------------------------------------------|
        
            (guitar 2 plays this riff right after the g string vibrato)
e|-----------0h2~~------------|
B|--0--2--5-------------------|
G|----------------------------|
D|----------------------------|
A|----------------------------|
E|----------------------------| 

                 Fixing a ...
                 A                    F#m
e|-------------------------------------------------------------|
B|-----------2-------------------------------------------------|
G|--------------2---------2---------------2--------------------|
D|---------2-----------2-----2---------4-----4-----------------|
A|-----0------------0---------------0--------------------------|
E|-------------------------------------------------------------|

[Instrumental]
e|------------------------------|
B|--------2-----3-----------2---|
G|--------------------2---------|
D|-----2-----2-----2-----2------|
A|--0---------------------------|
E|------------------------------|

[Verse 2]
And I don't understand...

[Pre-Chorus]
Yeahhh just like an answered ...

[Chorus]
You really know where to start............
       A                 E 
e|---------------------------------------------------|
B|----------------------------2--------------0-------|
G|-------------------------------2--------------1----|
D|-------------------------2--------------2----------|
A|----------------------0--------------2-------------|
E|---------------------------------------------------|

       Fixing    a      ..
        F#m               A                 Bm               A
e|------------------------------------------------------------------------|
B|-----------2---------------2-----------------3----------------2---------|
G|--------------4---------------2-----------------4----------------2------|
D|--------4---------------2-----------------4----------------2------------|
A|-----0---------------0-----------------0----------------0---------------|
E|------------------------------------------------------------------------|

       You really ...
 E
e|-----------0-------------------------------|
B|-----0--0--0--0----------------------------|
G|-----1--1--1--1----------------------------|
D|-----2--2--2--2----------------------------|     
A|-----2--2-----2----------------------------|
E|-----x--x-----x----------------------------|

     Your emotional tools can ...
        A           E         F#m
e|---------------------------------------------------------------------|
B|---------------------------2-----------0-----------------------------|
G|------------------------------2-----------1--------2-----------------|
D|------------------------2-----------2-----------4-----4-----4--------|
A|---------------------0-----------2-----------0-----------0-----------|
E|---------------------------------------------------------------------|

                (guitar 2 plays this background right after the F#m riff)
e|---------------------2~~-----|
B|-----------------------------|
G|-----------------------------|
D|-----------------------------|
A|-----------------------------|
E|-----------------------------|

       Whose dreams have ...
                    Bm        A              E
e|---------------------------------------------------------------------|
B|---------------------3-----------2-----------------------------------|
G|------------------------4-----------2--------1h2--1~-----------------|
D|------------------4-----------2-----------2--------------------------|
A|---------------0-----------0-----------2-----------------------------|
E|---------------------------------------------------------------------|
        
            (guitar 2 plays this riff right after the g string vibrato)
e|-----------0h2~~------------|
B|--0--2--5-------------------|
G|----------------------------|
D|----------------------------|
A|----------------------------|
E|----------------------------| 

                 Fixing a ...
                 A                    F#m
e|-------------------------------------------------------------|
B|-----------2-------------------------------------------------|
G|--------------2---------2---------------2--------------------|
D|---------2-----------2-----2---------4-----4-----------------|
A|-----0------------0---------------0--------------------------|
E|-------------------------------------------------------------|

(this riff is played in the end of the 2nd chorus,then play the bridge)
e|-----------------------0--0--0-----------|
B|-----------------------0--0--0-----------|
G|--------1--------------1--1--1-----------|
D|-----2-----2--2-----2--2--2--------------|
A|--2-----------0--2-----2--2--------------|
E|--------------0--------x--x--------------|

[Bridge]
Em             F#
Soon the rain will stop ...
    Bm              A
So lets forget the ...
    D                 E
Cause here we are at ...

[Chorus]
You really know where to start............
       A                 E 
e|---------------------------------------------------|
B|----------------------------2--------------0-------|
G|-------------------------------2--------------1----|
D|-------------------------2--------------2----------|
A|----------------------0--------------2-------------|
E|---------------------------------------------------|

       Fixing    a      ..
        F#m               A                 Bm               A
e|------------------------------------------------------------------------|
B|-----------2---------------2-----------------3----------------2---------|
G|--------------4---------------2-----------------4----------------2------|
D|--------4---------------2-----------------4----------------2------------|
A|-----0---------------0-----------------0----------------0---------------|
E|------------------------------------------------------------------------|

       You really ...
 E
e|-----------0-------------------------------|
B|-----0--0--0--0----------------------------|
G|-----1--1--1--1----------------------------|
D|-----2--2--2--2----------------------------|     
A|-----2--2-----2----------------------------|
E|-----x--x-----x----------------------------|

     Your emotional tools can ...
        A           E         F#m
e|---------------------------------------------------------------------|
B|---------------------------2-----------0-----------------------------|
G|------------------------------2-----------1--------2-----------------|
D|------------------------2-----------2-----------4-----4-----4--------|
A|---------------------0-----------2-----------0-----------0-----------|
E|---------------------------------------------------------------------|

                (guitar 2 plays this background right after the F#m riff)
e|---------------------2~~-----|
B|-----------------------------|
G|-----------------------------|
D|-----------------------------|
A|-----------------------------|
E|-----------------------------|

       Whose dreams have ...
                    Bm        A              E
e|---------------------------------------------------------------------|
B|---------------------3-----------2-----------------------------------|
G|------------------------4-----------2--------1h2--1~-----------------|
D|------------------4-----------2-----------2--------------------------|
A|---------------0-----------0-----------2-----------------------------|
E|---------------------------------------------------------------------|
        
            (guitar 2 plays this riff right after the g string vibrato)
e|-----------0h2~~------------|
B|--0--2--5-------------------|
G|----------------------------|
D|----------------------------|
A|----------------------------|
E|----------------------------| 

                 Fixing a ...
                 A                    F#m
e|-------------------------------------------------------------|
B|-----------2-------------------------------------------------|
G|--------------2---------2---------------2--------------------|
D|---------2-----------2-----2---------4-----4-----------------|
A|-----0------------0---------------0--------------------------|
E|-------------------------------------------------------------|

(Guitar 3) 
9plays something like this)(riff v)
e|--------------------------------------|
B|--------------------------------------|This riff is played repeatly
G|------0h9--7--9--7-----0h9--7--9------|then,
D|---7----------------7-----------------|
A|--------------------------------------|
E|--------------------------------------|

(riff w)
e|--------------------------------------|
B|-----7--6--2--2-----------------------|After this,riff v is again
G|--7-----------0-----------------------|repeated then outro
D|--------------------------------------|
A|--------------------------------------|
E|--------------------------------------|

[Outro]
(played by guitar 3)
e|--------------------------------------|
B|--------10~~~-------------------------|
G|-----7--------------------------------|
D|--7-----------------------------------|
A|--------------------------------------|
E|--------------------------------------|



************************************

| ~  Vibrato
| h  Hammer-on
| x  Dead note

************************************
Suggest correction
comments
print report bad tab
2 comments total.
+2 reply
yourmommafsho 31 Oct 08, 2007 04:27 PM

You're intro is wrong. Try this:

Intro:
e|------------------------------|
b|--------2-----3-----0-----2---|
g|------------------------------|
d|-----2-----2------------------|
a|--0---------------------------|
E|------------------------------|


OR

Intro:
e|---------------------------|
b|-------2------3--0--2------|
g|--------------0--0--0------|
d|-----2---2-----------------|
a|--0-----------0--0--0------|
E|---------------------------|

-1 reply
rock_\MEr\ 10 Jan 19, 2010 07:43 PM

good job duds.. aztigin,
pang akit ng ckikzz.. hehe, tnx

guest
You may want to rate the tab now too:
select rating
Wanna post a correction for this tab? Suggest correction