Oops, an error
Loading. Please wait.

The Wounded Tab

406 views 1 this week
2 commentsread comments
1 2 3 4 5
x 3
add to favorites
launch autoscroll
font size
0
reset
how to read this tab
guitar tuner
Autoscroll
slow
fast
+/-
esc
set tempo
stop
Help us to improve Ultimate-Guitar.com Take our survey!
×
Author
Difficulty
intermediate
This, as of march 26 2007 is the only Index case tab on the net.
This song took a while to figure out but i think its correct.
Lets get started.
If I screwed up the tuning its in drop b
You know when to put in distortion so i wont put it in.  It will only kill you in the end.
Intro
Riff 1                                   Riff 2
c#|----------------------------------   |--------------------
G#|----------------------------------   |--------------------
E |---------------------------------- X3|--------------------
B |----------------------------------   |--------------------
F#|0---8---0-8-7-0---8---0---3-------   |3-3-3-3---7-7-7-7---
B |0---8---0-8-7-0---8---0---3-------   |3-3-3-3---7-7-7-7---

Verse
Part 1
C#|-------------------------------   |--------------------------------
G#|-------------------------------   |--------------------------------
E |------------------------------- X3|--------------------------------
B |8----8----7----7----7----7-8-10   |8----8----7----10----8----7-----
F#|-------------------------------   |--------------------------------
B |-------------------------------   |--------------------------------
Part 1 X4 Total
Part 2
I dont know why but not quite sure about this part. Experiment yourself!
C#|------------------------------------------------------------------------
G#|------------------------------------------------------------------------
E |---------------------------------------------------- The first two zeros
B |---------------------------------------------------- could be eights.---
F#|3---3-------2---2-------0---0-------0-10---10---------------------------
B |3---3-------2---2-------0---0-------0-10---10---------------------------
  PM............................................|
Part two X2 total
Then
C#|---------------------
G#|---------------------
E |---------------------X1
B |---------------------
F#|---------------------
B |--------7-8-10-8-8-7-

Chorus
Intro riff 1 X7
Intro riff 2 X1

The second verse is the exact same as the first.

Bridge
This part was especially hard to figure out. There are probably some ghost notes in there.
C#|----------------------------------------
G#|----------------------------------------
E |----------------------------------------
B |0---------------------------------------
F#|0---------------------------------------
B |0---------------------------------------
Hold for about two measures
Hard part (to figure out)
C#|1----0----1------------------8-------------------5-----------5---------0
G#|--------------3--------------------------3-----------1---3------1--3--1-
E |------------------------2-----------------------------------------------
B |------------------------------------------------------------------------
F#|-------------------1-------------3---5-------1--------------------------
B |------------------------------------------------------------------------
Then verse riff 1 X3
THEN
C#|----------------------------
G#|----------------------------
E |----------------------------
B |8----8----8----8----7-------
F#|----------------------------
B |----------------------------

Chorus
Intro riff 1 X7
Intro riff 2 X1 with abrupt ending.

If any thing seems wrong to you, add a comment and i will check it and comment back.  You know the song so you can figure it out if you think something is wrong.  Sorry if this tab is inaddiquate.
http://www.myspace.com/indexcase couldnt get link
Suggest correction
Give kudos to tab author, rate the tab!
1 2 3 4 5
comments
print report bad tab
2 comments total.
0 reply
dertjoe 10 May 29, 2008 04:09 AM

this songs actually done in drop d, josh switches to his main ESP

0 reply
xbanks 10 Jul 08, 2008 12:29 AM

i gave it 4 stars only because some of the hammer ons, pull offs and slides aren't shown. i think drop d sounds best too. other than that its an awesome tab of an awesome song.

guest
You may want to rate the tab now too:
select rating
Wanna post a correction for this tab? Suggest correction