Oops, an error
Loading. Please wait.

Ikuinen Virta chords

version 1
version 1

Whole song

Interactive

by Indica
892 views 15 this week
no commentswrite comment
1 2 3 4 5
2 more votes to show rating
add to favorites
×
Save as Personal and add changes to this tab that will be seen only by you. Learn more ›
×
You can save this tab as Personal to edit and correct it or add notes. All changes will be seen only by you. Learn more »
launch autoscroll
font size
0
reset
transpose
0
reset
simplify chords
display chords
guitar tuner
edit
Autoscroll
slow
fast
+/-
esc
set tempo
stop
Author
Difficulty
Strumming
There is no strumming pattern for this song yet. and get +5 IQ
Tabs by improvibatur AKA Howl3r
Contact me: howl3r.acko@gmail.com 
 
The chords are basically played as power chords (at least that's how I hear them)
(G5, C5 and so on)

[Intro tab] x2 
(starts on the second line of the intro chords)
e|---------------------------------------------------------------|
B|---------------------------------------------------------------|
G|-------------------------16------------------------------------|
D|-----16--18--18--16--16------16--18--18------------------------|
A|-18------------------------------------------------------------|
E|---------------------------------------------------------------|

e|---------------------------------------------------------------|
B|---------------------------------------------------------------|
G|-------------------------16------------------------------------|
D|-----16--18--18--16--16------16--18--16------------------------|
A|-18------------------------------------------------------------|
E|---------------------------------------------------------------|

[Intro chords]
G#m - C# - G#m - C# - G#m - C# - G#m - Bm D#
G#m - E - Bm - F#
G#m - E - Bm - F#

[Verse]
G#m  C#     G#m
Mun vuodet vähenee
C#           E
Ne ilmaan ohenee
F#         Bm      D#
Kuin savu taivaaseen
G#m  C#      G#m
Mun jälkeeni ei jää
C#            E
Kai mitään kestävää
F#          Bm     C# D#
Pois kaikki häviää
G#m  C#       G#m
Mä hiekkalinnan teen
C#         E
Se vaipuu paikoilleen
F#        Bm     D#
Ei kestä huomiseen
G#m  C#     G#m
On turha rakentaa
C#          E
Polkua jatkuvaa
F#         Bm   C# D#
Jos kaikki katoaa

[Chorus]
G#m             E
Entä jos elämän ikuinen virta
Bm                    F#
Katkeaa kuin lahonnut silta
G#m            E
Entä jos eksyn matkalla laivaan
Bm                        F#
Voinko mä rakentaa tuhkasta taivaan
G#m             E
Ainoa varma on vain tämä hetki
Bm                          F#
Heikolla jäällä käy sieluni retki
G#m              E
Anteeksi luoja rauhaasi vaivaan
Bm                          F#
Voinko mä rakentaa tuhkasta taivaan

[Break] 
(optionally you can play the intro tab one time)
G#m - E - Bm - F#

[Verse]
G#m  C#     G#m
Sä säästät lippaaseen
C#                E
Rahat käytät korkoineen
F#         Bm      D#
Kai taloon kiviseen
G#m  C#       G#m
Vaan miksi uskot niin
C#            E
Jos sulle pedattiin
F#           Bm    C# D#
Vain sänky sammaliin

[Chorus]
G#m             E
Entä jos elämän ikuinen virta
Bm                    F#
Katkeaa kuin lahonnut silta
G#m            E
Entä jos eksyn matkalla laivaan
Bm                        F#
Voinko mä rakentaa tuhkasta taivaan
G#m             E
Ainoa varma on vain tämä hetki
Bm                          F#
Heikolla jäällä käy sieluni retki
G#m              E
Anteeksi luoja rauhaasi vaivaan
Bm                          F#
Voinko mä rakentaa tuhkasta taivaan

[Interlude] x3
E - (D#) C# - (D#) G#m - F#

[Solo] x8 
(played during the second and third interlude)
e|---------------------------------------------------------------|
B|-16--------------16--------------16------16--------------------|
G|---------16--18----------16--18--------------18----------------|
D|-----18--------------18--------------18------------------------|
A|---------------------------------------------------------------|
E|---------------------------------------------------------------|
 
[Bridge]
G#m
(I like to add a pick slide here but it's not in the original version)

[Chorus]
G#m             E
Entä jos elämän ikuinen virta
Bm                    F#
Katkeaa kuin lahonnut silta
G#m            E
Entä jos eksyn matkalla laivaan
Bm                        F#
Voinko mä rakentaa tuhkasta taivaan
G#m             E
Ainoa varma on vain tämä hetki
Bm                          F#
Heikolla jäällä käy sieluni retki
G#m              E
Anteeksi luoja rauhaasi vaivaan
Bm                          F#
Voinko mä rakentaa tuhkasta taivaan

[Outro]
(optionally you can play the intro tab)
G#m - E - Bm - F# x2
G#m 
Suggest correction
Creating personal tab
Creating personal tab
You can edit any tab online and save it as your Personal.

You can edit, replace or remove any tab part or add personal notes – all changes will be seen only by you.

Personal tabs can be accessed anytime from any device, even offline.
Learn more »
Give kudos to tab author, rate the tab!
1 2 3 4 5
comments
print report bad tab
guest
You may want to rate the tab now too:
select rating
Wanna post a correction for this tab? Suggest correction