Oops, an error
Loading. Please wait.

Antrax Tab

13 views 1 this week
no commentswrite comment
1 2 3 4 5
3 more votes to show rating
add to favorites
launch autoscroll
font size
0
reset
how to read this tab
guitar tuner
×
Best way to learn
"Antrax"
Autoscroll
slow
fast
+/-
esc
set tempo
stop
La cancion mas pesada del disco,por cierto,sigo esperando
lo nuevo de esta grandiosa banda...bueno,suban el volumen de 
su guitarra al maximo y toquen esta tab sin prejuicios.


Intro:

(clean)
-0-0--0-0--0---------1-3-3--------
-0-0--1-1----0-----2---3---3------
-2-0--2-1------2---2---0----2-----
-2-2--2-2--------3-----0-------0--
-----------------------2-------0--
-----------------------3-------3--
"Al principio todo..."

versos:

trata de tocar esto lo mas rapido que puedas. 
 
----------------------------------
----------------------------------
----------------------------------
----------------------------------
-2-2-2--2-2-2-2-2--5-5-5-5-5-5-5--
-0-0-0--0-0-0-0-0--3-3-3-3-3-3-3--

Coro:
--4-4-4-7-7-7-7-------------4----------
--4-4-4-9-9-9-9-------------4----------
--5-5-5-9-9-9-9-------------5----------
--6-6-6-9-9-9-9-------------6----------
--6-6-6-7-7-7-7--8-8-8-8-8--6-6-6-6-6--
--4-4-4-7-7-7-7--7-7-7-7-7--4-4-4-4-4--
                    "...antrax en tu mente!!"


Interlude:
despues de cada nota golpea las cuerdas de la guitarra
para callarlas de una forma violenta..(arci utiliza una especie
de tornillo para golpear las cuerdas,y tambien como slide)

----------------------------
----------------------------
----------------------------
-5-5-5-x--5-5-5-x--2-2-2-x--
-5-5-5-x--5-5-5-x--2-2-2-x--
-3-5-5-x--3-5-5-x--0-2-2-x--

Bueno,eso es todo...
Suggest correction
Give kudos to tab author, rate the tab!
1 2 3 4 5
comments
print report bad tab
guest
You may want to rate the tab now too:
select rating
Wanna post a correction for this tab? Suggest correction