Oops, an error
Loading. Please wait.

Calale Chords

5 views 1 this week
no commentswrite comment
1 2 3 4 5
3 more votes to show rating
add to favorites
launch autoscroll
font size
0
reset
transpose
0
reset
display chords
guitar tuner
Autoscroll
slow
fast
+/-
esc
set tempo
stop
Help us to improve Ultimate-Guitar.com Take our survey!
×
Que mal que la radio no apoyo el segundo disco
de indigentes, me parece que "la flauta magica" tiene mucho
mas calidad que las porquerias de pito perez,shakira,panda,
vulvo,etc...esta es una banda real, con una musica de exportacion
y por suerte no se dan por vencido ante el comercialsmo.
Este es el primer sencillo de su tercer album, que esta por salir
y por lo visto,no se queda atras tampoco a su grandioso
disco debut "le falta la bomba"...disfrutenlo compas

Intro:
E--------------------    --8--
B----88888-----------    --8-- 
G------------99999---    -----
D-------------------- x3 -----
A--7-------7---------    --7--
E--5-------5---------    --5--

riff B:            fill:
E--------------    -----------------
B---------10---    ---------10--XX--
G--------------    -------------XX--
D--7-\-10------    --7-\-10-----XX--
A--0-----------    --0----------XX--
E--------------    -----------------

riff C:
E--------------    
B---------10---    
G--------------    
D--10-\-5------    
A--0-----------    
E--------------

chorus:
   "Eso si te digo...
E----------------------------------------
B----------------------------------------
G--------------------------------4-XX-4--   
D--7...10...-3...5....-7...10...---XX----
A--7........-3........-7........-3-XX-3--
E--5........-1........-5........-1-XX-1--

E-------------------------------------------------
B-------------------------------------------------
G----------------------------------12...9..10...-- 
D--7...10...-3...5....-7...10...-10.............--
A--7........-3........-7........--8.............--
E--5........-1........-5........------------------


riff D:
E--------3-------   
B--------0-------    
G----------------    
D--5-\-3---3-33--    
A--0-------0-00--    
E----------------


bridge:
   "eso ya es de vagales,eso ya es de..."
E----------------------------
B----------------------------
G--9.......------------------
D--10......12..-10.........--
A--10..........-7..........-- x2
E--8-..........-5..........--

E------------------------------------------
B------------------------------------------
G--9....10..12..-------------9....10..12..-
D--10...........-9..........-10...........-
A--10...........-7..........-10...........-
E--8............-5..........-8............-

Final:
                 "....calale!!!"
E----------      ---------
B----------      ---------
G----------      ---------
D-7/8\7-XX-      10-10-10-
A-7/8\7-XX- x10  -0--0--0-
E-5/6\5-XX-      ---------
Suggest correction
Give kudos to tab author, rate the tab!
1 2 3 4 5
comments
print report bad tab
guest
You may want to rate the tab now too:
select rating
Wanna post a correction for this tab? Suggest correction