Oops, an error
Loading. Please wait.

Dame Tab

4 views 1 this week
no commentswrite comment
1 2 3 4 5
3 more votes to show rating
add to favorites
launch autoscroll
font size
0
reset
how to read this tab
guitar tuner
×
Best way to learn
"Dame"
Autoscroll
slow
fast
+/-
esc
set tempo
stop
buena rola,ya les hacia falta algo asi de pesado,no tanto 
como la de antrax,pero con un estilo slipknot muy bueno.
fijense que las guitarras se afinan de una manera distinta,
solo asi se puede tener el sonido exacto.

intro:
Drop D 1/2 Steps (B F# B E G# C#)
--------------------|--------------------|-------------------
--------------------|--------------------|-------------------
--------------------|--------------------|-------------------
--------------------|--------------------|-------------------
--------------------|--------------------|-------------------
-6b-0-6b-0-0h7-7p0--|--6b-06b-0-0h7-7p0--|6b-0-6b-0-0h7-7p0--

versos:                                                                 
---------------|------------------|---------------|------------------
---------------|------------------|---------------|------------------
----------5555-|---------5555-----|--------55-----|--------55--------
---------------|------------------|-----------5---|-----------5------
-2-0-1---------|-2-0-1------------|2-0-1--------5-|2-0-1--------5----
-2-0-1---------|-2-0-1------------|2-0-1----------|2-0-1-------------

Coros:
-------------------|--------------|---------------|-----------------
-------------------|--------------|---------------|-----------------
-------------5555--|--------5555--|--------55-----|-------55--------
-------------------|--------------|----------5----|----------5------
------7-0-4--------|-7-0-4--------|-7-0-4------5--|-7-0-4------5----
------7-0-4--------|-7-0-4--------|-7-0-4---------|-7-0-4-----------
"dame....."                            "...yo te di pollo,dame"

interlude:
-----------------------|---------------|------------------|----------------
-----------------------|---------------|------------------|----------------
-----------------------|---------------|------------------|----------------
-----------------------|---------------|------------------|----------------
---------2-1-0-3-2-0-3-|2-1-0-3-2-0-0-3|2-1-0-0-3-2-0-0-3-|----------------
---------2-1-0-3-2-0-3-|2-1-0-3-2-0-0-3|2-1-0-0-3-2-0-0-3-|----------------                
          "..ya,no es gracioso(dame),ya,no es gracioso(dame)..."


Sin palabras para describir este nuevo disco,
gracias indigentes.
Suggest correction
Give kudos to tab author, rate the tab!
1 2 3 4 5
comments
print report bad tab
guest
You may want to rate the tab now too:
select rating
Wanna post a correction for this tab? Suggest correction