Oops, an error
Loading. Please wait.

Ernesto El Taxista Tab

23 views 1 this week
no commentswrite comment
1 2 3 4 5
3 more votes to show rating
add to favorites
launch autoscroll
font size
0
reset
how to read this tab
guitar tuner
×
Best way to learn
"Ernesto El Taxista"
Autoscroll
slow
fast
+/-
esc
set tempo
stop
Intro:
e|--------------------|
B|--------------------|
G|--------------------|
D|--------------------|
A|--------------------|
D|-00-0*0*--00-0*0*0*-|

E-|00--00|

Lead 1:
e|----------------------------------------------------------------------------|
B|--10^--10--10--10--10----10----10^---10---10---10---10-10-10-10-10-10-10----|
G|--12^--12--12--12--12----12----12^---12---12---12---12-12-12-12-12-12-12----|
D|----------------------------------------------------------------------------|
A|----------------------------------------------------------------------------|
D|----------------------------------------------------------------------------|
Lead 2:
e|----------------------------------------------------------------------------|
B|--10-10-10-10-10-10-10-10-10-10-10-10-10-10-10-10-10-10-10-10-10-10---------|
G|--12-12-12-12-12-12-12-12-12-12-12-12-12-12-12-12-12-12-12-12-12-12---------|
D|----------------------------------------------------------------------------|
A|----------------------------------------------------------------------------|
D|----------------------------------------------------------------------------|

Lead 3:
 Pm ........... 
e|----------------------------------------------------------------------------|
B|--10-10-10-10-10-10-10----10-----------3-----------------------3------------|
G|--12-12-12-12-12-12-12----12-----------2-----------------------3------------|
D|---------------------------------0-------0-----------------------0----------|
A|----------------------------------------------------------0-0---------------|
D|----------------------------------------------------------------------------|

Lead 4:

e|----------------------------------------------------------------------------|
B|----------3-----------------------0-----------------------------------------|
G|----------2-----------------------3--------------------14---14-14-----------|
D|----------0-----------------------3----------------0----0----0--0-----------|
A|---0-0---------------------0-0----------------------------------------------|
D|----------------------------------------------------------------------------|
 
                                         
                                            sl.
e|----------------------------------------------------------------------------|
B|----------------------------------------------------------------------------|
G|-14---12-12---12-12-12/15---15---15-15---15---12-12--12--12-----------------|
D|--0----0--0----0--0-- 0--------0----0--0----0----0--0----0--0---------------|
A|----------------------------------------------------------------------------|
D|----------------------------------------------------------------------------|
 
                                                                                    
        sl.                                                                     sl.
e|----------------------------------------------------------------------------|
B|----------------------------------------------------------------------------|
G|--12/14------14----14--14----14----12--12----12--12----12/15------15--------|
D|---0----------0------0---0-----0-----0---0-----0---0------0----------0------|
A|----------------------------------------------------------------------------|
                               (Slide)
e|------------------------------------------|
B|------------------------------------------|
G|--15----15----15/17----17--17--17----17---|
D|---0-----0-----0---------0---0---0-----0--|
A|------------------------------------------|
D|------------------------------------------|
 
 
1st Verze:

 
                                                                   P.M.--|     
e|----------------------------------------------------------------------------|
B|----------------------------------------------------------------------------|
G|--2----------------2-2---3----------------2-------2----------------3-------|
D|--0----------------------0------------------------0----------------0--------|
A|---------------------------------------------0------------------------------|
D|----------------------------------------------------------------------------|
 
                                               
e|----------------------------------------------------------------------------|
B|----------------------------------------------------------------------------|
G|---------3----------------2------2----2--2------2------0--0------0--0------|
D|---------0----------------0------0----0--0------0------0--0------0--0------|
A|----------------------------------------------------------------------------|
D|----------------------------------------------------------------------------|
 
 
       sl.
e|----------------------------------------------------------------------------|
B|----------------------------------------------------------------------------|
G|--2/3------3------3--3------3----0--0------0--0------0H2------2------2--2-|
D|--0--------0------0--0------0----0--0------0--0------2--------0------0--0-|
A|----------------------------------------------------------------------------|
D|----------------------------------------------------------------------------|
 
 
                                                           sl.                 sl.
e|----------------------------------------------------------------------------|
B|----------------------------------------------------------------------------|
G|------2------0--0------0--0----2/3------3------3--3------3/5----5--5--5---|
D|------0------0--0------0--0----0--------0------0--0------0------0--0--0---|
A|----------------------------------------------------------------------------|
D|----------------------------------------------------------------------------|


                  PreChorus
 
                  P.M.---------------|           P.M.---------|          P.M.-------|
e|----------------------------------------------------------------------------|
B|-----------------------------15-----------------15--------------16---------|
G|---5-------------------------14-----------------14--------------15--------|
D|---0------------------------------------------------------------------------|
A|----------------------------------------------------------------------------|
D|---------12-12-12-12-12-12-------12-12-12-12-------12121212-------------|
 
 
    P.M.---------|           P.M.---------|         P.M.-----|          P.M.----------|
e|----------------------------------------------------------------------------|
B|----------------16----------------16------------15----------------15-------|
G|----------------15----------------15------------14----------------14-------|
D|----------------------------------------------------------------------------|
A|----------------------------------------------------------------------------|
D|--13-13-13-13------13-13-13-13------12121212------12-12-12-12-----------|
 
 
     P.M.---------|          P.M.------|         P.M.----------|
e|----------------------------------------------------------------------------|
B|----------------15-------------16----------------16------16---16---16-----|
G|----------------14-------------15----------------15------15---15---15-----|
D|----------------------------------------------------------------------------|
A|----------------------------------------------------------------------------|
D|--12-12-12-12------12121212-------13-13-13-13---------------------------|
 
 
                                                              Chorus
e|----------------------------------------------------------------------------|
B|--16---16-16-16-16-16-16-16----------------------------------------------|
G|--15---15-15-15-15-15-15-15----------------------------------------------|
D|------------------------------------0--------------------------------------|
A|------------------------------------0--------------------------------------|
D|------------------------------------0--------------------------------------|
 
e|-------------------------------------|
B|-------------4----------4---4--4--4-|
G|-------------3----------3---3--3--3-|
D|--1----------------------------------|
A|--1----------------------------------|
D|--1----------------------------------|
 
                  
Guitar Solo
                                                                                           
e|---------------------------------------------------------------------------|
B|--------------------------------3--5----------------------------------------|
G|--2-----------------------------2--2---3----------3^------------------------|
D|----------------------------------------------------------------------------|
A|----------------------------------------------------------------------------|
D|----------------------------------------------------------------------------|
 
                                                              /\/\/\/\/\/\/\/\/\/\/\/\/\/\/\/\
e|------------5---------------------------------------------------------------|
B|------------------------3--5-----------------------------------------------|
G|--2---------------------2--2--3------3/5--5--------------------------------|
D|----------------------------------------------------------------------------|
A|----------------------------------------------------------------------------|
D|----------------------------------------------------------------------------|
 
 
e|-------|
B|-------|
G|-------|
D|--0--0-
A|-------|
D|-------|
 
2nd Verse
 
e|----------------------------------------------------------------------------|
B|----------------------------------------------------------------------------|
G|--2----------------3----------------2----------------3----------------7----|
D|--0----------------0----------------0----------------0----------------7----|
A|----------------------------------------------------------------------------|
D|----------------------------------------------------------------------------|
 
                                            sl.
e|----------------------------------------------------------------------------|
B|----------------------------------------------------------------------------|
G|----7------7--7--------7/5----5------5--5----5/8------8------8--8---------|
D|----7------7--7--------7/5----5------5--5----5/8------8------8--8---------|
A|----------------------------------------------------------------------------|
D|----------------------------------------------------------------------------|
 
      sl.                                     sl.                              sl.
e|----------------------------------------------------------------------------|
B|----------------------------------------------------------------------------|
G|--8/5----5------5--5----5/7--------7------7--7--------7/5----5------5--5--|
D|--8/5----5------5--5----5/7--------7------7--7--------7/5----5------5--5--|
A|----------------------------------------------------------------------------|
D|----------------------------------------------------------------------------|
 
 
          sl.                                                sl.
e|-----------------------------------------------------------|
B|-----------------------------------------------------------|
G|----5/8--------8------8--8------8/10----10--10--10----10-|
D|----5/8--------8------8--8------8/10----10--10--10----10-|
A|-----------------------------------------------------------|
D|-----------------------------------------------------------|
 
PreChorus
 
                                                     improvise w/ trem. and feedback
                                                                               sl.
e|----------------------------------------------------------------------------|
B|--3-------------------------------------------3/15-------------------------|
G|--2-------------------------------------------2/14-------------------------|
D|--0-------------------------------------------------------------------------|
A|--0-------------------------------------------------------------------------|
D|--0-------------------------------------------------------------------------|
 
 
3rd Verse
 
                  
   P.M.-------------------------------------------------------------------------|
e|----------------------------------------------------------------------------|
B|----------------------------------------------------------------------------|
G|--8---8---8---8---8---8---8---8---8---8---8---8---8---8---8---8---7---7---|
D|--8---8---8---8---8---8---8---8---8---8---8---8---8---8---8---8---7---7---|
A|--6---6---6---6---6---6---6---6---6---6---6---6---6---6---6---6---5---5--|
D|----------------------------------------------------------------------------|
 
 
 
e|----------------------------------------------------------------------------|
B|----------------------------------------------------------------------------|
G|--7---7---7---7---7---7---7---7---7---7---7---7---7---7---8---8-----------|
D|--7---7---7---7---7---7---7---7---7---7---7---7---7---7---8---8-----------|
A|--5---5---5---5---5---5---5---5---5---5---5---5---5---5---6---6-----------|
D|----------------------------------------------------------------------------|
Suggest correction
Give kudos to tab author, rate the tab!
1 2 3 4 5
comments
print report bad tab
guest
You may want to rate the tab now too:
select rating
Wanna post a correction for this tab? Suggest correction