Oops, an error
Loading. Please wait.

Ik Tiwik Tab

14 views 1 this week
no commentswrite comment
1 2 3 4 5
3 more votes to show rating
add to favorites
launch autoscroll
font size
0
reset
how to read this tab
guitar tuner
Autoscroll
slow
fast
+/-
esc
set tempo
stop
Help us to improve Ultimate-Guitar.com Take our survey!
×
Bueno,eh aqui el primer y espectacular sencillo de esta nueva 
banda de rock,espero que compren su disco porque de este tipo
de bandas ya casi no hay en mexico.
Esta cancion aunque es bastante larga no es dificil,pero recomiendo
que no uses pua para que puedes obtener el sonido exquisito que tiene.


Intro:
(erni arpaguea acustico)X10
--------0-------------0--------3-----------
------0---0---------0---0------3-3---------
----0-------0-----0-------0----0----0---0--
-------------------------------0------0----
-------------------------------2-----------
--0-------------0--------------3-----------

(en la tercera repeticion entra el Arci
con el solo)

-----------------14--15-16----------10--------
-------------12------------12-----------12----
----------12------------------12/14-----------
---4--5-6-------------------------------------
-7\-------------------------------------------
----------------------------------------------

Intro 2:
(despues arci y erni 
tocan esto al mismo tiempo c/dist.)X 8

------------------------------
------------------------------
------------------------------
--2--2--3-3/7-----------------
--2--2--3-1/7--------5-4------
--0--0--1-1/5---7-8-8---------

Versos:
(Arci toca sin dist.)
                 pm.......
--3-3--3-3-2--2--2-2-2--2---------0-------3---
--3-3--2-2-3--3--3-3-3--3-------0---0-----0---
--0-0--3-3-4--4--4-4-4--4-----0-------0---0---
--0-0--0-0-4--4--4-4-4--4-----------------0---
--2-2------2--2--x-x-x--2-----------------2---
--3-3------2--2--x-x-x--2---0-------------3---
por las mañanas se escucha el canto......


En los coros se toca el 'INTRO 2' al mismo tiempo 
que se alborotan los pajaros,trata de ir a su ritmo.
 
Interludio:
(mientras faget toca el solo de bateria,arci raspa las 
cuerdas apagandolas con la mano izq.)X12

----------------
----------------
----------------
-x--x-x-x-x-----
-x--x-x-x-x-----
-x--x-x-x-x-----

Solo:
(arci)
--10-----------10-9p10-3/5-7---------4h7b6-8/9----
-----13-12h14---------------5----6----------------
------------------------------5-------------------
--------------------------------------------------
--------------------------------------------------
--------------------------------------------------

(*en esta parte del solo Arci puntea las armonicas a la eddi Van Halen,
se necesita un poco de practica*)
-8h9p8-----*12h14h17p12*-12h14h17p12*-12h14h17p12*--------------
-------4/6-----------------------------------------*12h14h17p12-
----------------------------------------------------------------
----------------------------------------------------------------
----------------------------------------------------------------
----------------------------------------------------------------

Outro:
(erni c/acustica)
-------0-----------0------3-------
-----0---0-------0---0----3-------
---0-------0---0-------0--0-------
--------------------------0-------
--------------------------3-------
-0------------0-----------3-------
...despertare el ik tiwik dentro de mi

(y arci toca esta nota con armonica)
-*14*----
-*15*----
-*15*----
---------
---------
---------
...de mi

Eso es todo,una banda todavia no comercial por suerte,
pero no con esa calidad no creo que duren asi mucho tiempo.
Suggest correction
Give kudos to tab author, rate the tab!
1 2 3 4 5
comments
print report bad tab
guest
You may want to rate the tab now too:
select rating
Wanna post a correction for this tab? Suggest correction