Oops, an error
Loading. Please wait.

Pandos Tab

5 views 1 this week
no commentswrite comment
1 2 3 4 5
3 more votes to show rating
add to favorites
launch autoscroll
font size
0
reset
how to read this tab
guitar tuner
×
Best way to learn
"Pandos"
Autoscroll
slow
fast
+/-
esc
set tempo
stop
Esta rola la tienes que tocar a tremenda velocidad,como lo hace arci
ya que menfis canta ultra rapido. Debe existir una gran coordinacion 
vocalista-guitarrista para poder lograr una buena ejecucion
de esta excelente rola

Intro:

E-|---------------------------------------------------------------------------------
B-|---------------------------------------------------------------------------------
G-|---------------------------------------------------------------------------------
D-|---------------------------------------------------------------------------------
A-|------5---------------3--------------------5---5---------------------------------
E-|----------0---3---5------5---3---5---3-------------------------------------------

E-|---------------------------------------------------------------------------------
B-|---------------------------------------------------------------------------------
G-|---------------------------------------------------------------------------------
D-|--------------------------------------------------------x--x--x------------------
A-|---------------5-----------------3-----------------5----x--x--x------------------
E-|-----0---3--------0---3---5--------5---3---5---3--------x--x--x------------------

E-|---------------------------------------------------------------------------------
B-|---------------------------------------------------------------------------------
G-|---------------------------------------------------------------------------------
D-|---------------------------------------------------------------------------------
A-|------5---------------3--------------------5---5---------------------------------
E-|----------0---3---5------5---3---5---3-------------------------------------------

E-|---------------------------------------------------------------------------------
B-|---------------------------------------------------------------------------------
G-|---------------------------------------------------------------------------------
D-|--------------------------------------------------------5---4---3----------------
A-|---------------5-----------------3---------------------------------5---4---3-----
E-|-----0---3--------0---3---5--------5---3---5---3---------------------------------

E-|-------------------------------------------------------------------------------
B-|-------------------------------------------------------------------------------
G-|-------------------------------------------------------------------------------
D-|-------------------------------------------------------------------------------
A-|------5---------------3--------------------5---5-------------------------------
E-|----------0---3---5------5---3---5---3-----------------------------------------

E-|-------------------------------------------------------------------------------
B-|-------------------------------------------------------------------------------
G-|-------------------------------------------------------------------------------
D-|-------------------------------------------------------------------------------
A-|---------------5-----------------3---------------------5-----------------------
E-|-----0---3--------0---3---5--------5---3---5---3-------------------------------

E-|-------------------------------------------------------------------------------
B-|-------------------------------------------------------------------------------
G-|-------------------------------------------------------------------------------
D-|-------------------------------------------------------------------------------
A-|------5---------------3--------------------5---5-------------------------------
E-|----------0---3---5------5---3---5---3-----------------------------------------

E-|-------------------------------------------------------------------------------
B-|-------------------------------------------------------------------------------
G-|-------------------------------------------------------------------------------
D-|-------------------------------------------------------------------------------
A-|---------------5-----------------3---------------------5-----------------------
E-|-----0---3--------0---3---5--------5---3---5---3-------------------------------


Verse: 00:26

E-|------------------------------------------------------------------------------
B-|-----------------------------------------------------------------5---4---5-5--
G-|-----7--x-x--7--7--x-x-x-x--7---7-7--x-x--7--x-x--7--7-x-x-x-x---5---4---5-5--
D-|-----7--x-x--7--7--x-x-x-x--7---7-7--x-x--7--x-x--7--7-x-x-x-x---5---4---5-5--
A-|-----5--x-x--5--5--x-x-x-x--5---5-5--x-x--5--x-x--5--5-x-x-x-x----------------
E-|------------------------------------------------------------------------------

E-|------------------------------------------------------------------------------
B-|------------------------------------------------------------------5---4---5-5-
G-|-x-x--7--x-x--7--7--x-x-x-x--7---7-7--x-x--7--x-x--7--7-x-x-x-x---5---4---5-5-
D-|-x-x--7--x-x--7--7--x-x-x-x--7---7-7--x-x--7--x-x--7--7-x-x-x-x---5---4---5-5-
A-|-x-x--5--x-x--5--5--x-x-x-x--5---5-5--x-x--5--x-x--5--5-x-x-x-x---------------
E-|------------------------------------------------------------------------------

00:39          
Rapeando:
Suggest correction
Give kudos to tab author, rate the tab!
1 2 3 4 5
comments
print report bad tab
guest
You may want to rate the tab now too:
select rating
Wanna post a correction for this tab? Suggest correction