Oops, an error
Loading. Please wait.

Rata Tab

4 views 1 this week
no commentswrite comment
1 2 3 4 5
3 more votes to show rating
add to favorites
launch autoscroll
font size
0
reset
how to read this tab
guitar tuner
Autoscroll
slow
fast
+/-
esc
set tempo
stop
Help us to improve Ultimate-Guitar.com Take our survey!
×
la guitarra uno la toca el arci y la 2 erni

Intro:
Guitarra 1:
||----------------2-2-2-2--||
||----------------5-5-5-5--||
||----------------3-3-3-3--||
||----------------2-2-2-2--||
||-------------------------||
||-------------------------||

Guitarra 2:
E|---------|            
B|---------|
G|---------|
D|-0-2-0-3-|
A|-0-2-0-3-|
D|-0-2-0-3-|

se repite varias veces antes del grito de "rata!!",despues
de eso se toca todo a la ves..

Versos:
D|-0-2-0-3-0-2-0-3-6-6-6-6-|  
A|-0-2-0-3-0-2-0-3-6-6-6-6-| 
D|-0-2-0-3-0-2-0-3-6-6-6-6-|

E|-0-0-0-0-----------0-0-0-0---------------|
B|-3-3-3-3-----------3-3-3-3---------------|
G|-1-1-1-1-----------1-1-1-1---------------|
D|--------------------------0--------------|
A|--------------------------0--------------|
D|--------------------------0-(deja sonar)-|


Coros("quiero queso...":
D|----------|
A|---5555---|
F|---3333---|
C|---2222---|
G|---2222---|
D|----------|

En si,esa es toda la rola,disfrutenla...
memo.
Suggest correction
Give kudos to tab author, rate the tab!
1 2 3 4 5
comments
print report bad tab
guest
You may want to rate the tab now too:
select rating
Wanna post a correction for this tab? Suggest correction