Oops, an error
Loading. Please wait.

Nada Chords

by Indigo
6 views 1 this week
no commentswrite comment
1 2 3 4 5
3 more votes to show rating
add to favorites
launch autoscroll
font size
0
reset
transpose
0
reset
simplify chords
display chords
guitar tuner
×
Best way to learn
"Nada"
Autoscroll
slow
fast
+/-
esc
set tempo
stop
Notas
      EADGBE
D     X00232
Bm/G# 4X443X
D/A   x02232
G     355433
F#m   244222
G1    300030


Haber familia guitarrera... este tema es muy facil... la siguiente
tablatura se repite las estrofas que va con D - Bm/G# -
y una especie de G ..

y para el coro las siguientes notas: D - D/A - G - F#m en arpegios
o rasgeadas.. si quieren un demo de como me sale en acustico me avisan
les mando el mp3 comprimido

    D                Bm/G#            G1
E|--------2-------|---------------|--------------0--------------|
B|-----------3----|---------3-----|---------3---------3-----3---|
G|-----2----------|------------4--|------0-----0---------0------|
D|--0-------------|------4--------|-----------------------------|
A|----------------|---------------|-----------------------------|
E|----------------|--4------------|---3-------------------------|


Estrofa  (con tablatura)
-------
Anda
Lentamente
Sobre el fragil asfalto
Que desvanece cada paso

No
Mires hacia abajo
Solo veras que no hay nada

Coro:
-----
D  D/A  F#m  G
Nadaaaaaaaaaaaaaa
D    D/A      F#m         G
Nada que te pueda soportar
D  D/A       F#m          G      D
          El peso que llevas dentro
 D/A  F#m  G
      Dentro

Estrofa (con tablatura)
-------
Dormir (dormir)
Profundamente
Un sueño eterno
Que diluye cada beso

No
Abras los ojos
Encontraras que no hay nada

Coro:
-----
D  D/A  F#m  G
Nadaaaaaaaaaaaaaa
D    D/A      F#m         G
Nada que te pueda soportar
D  D/A       F#m          G      D
          El peso que llevas dentro
 D/A  F#m  G
      Dentro
D  D/A  F#m  G
Dentro???????????.
D  D/A  F#m  G
Dentro?????????.
D  D/A  F#m  G
Dentro????????

Punteo:
-------

       D             D/A            F#m               G
E|--------------|--------------|--------------|--------------|
B|-3-3-3-3-3-3-3|-5-5-5-5-5-5-5|-7-7-7-7-7-7-7|-8-8-8-8-8-8-8|
G|--------------|--------------|--------------|--------------|
D|--------------|--------------|--------------|--------------|
A|--------------|--------------|--------------|--------------|
E|--------------|--------------|--------------|--------------|

Estrofa   - En esta parte no se arpegia se rasgea
-------
No
Mires hacia abajo
Solo veras que no hay nada
Nada

sugerencias a:  fredybustamante@
ya les mando las canciones de indigo que faltan en esta web
salu2
Suggest correction
Give kudos to tab author, rate the tab!
1 2 3 4 5
comments
print report bad tab
guest
You may want to rate the tab now too:
select rating
Wanna post a correction for this tab? Suggest correction