Oops, an error
Loading. Please wait.

Soledad Bass

by Indigo
14 views 1 this week
no commentswrite comment
1 2 3 4 5
3 more votes to show rating
add to favorites
launch autoscroll
font size
0
reset
guitar tuner
×
Best way to learn
"Soledad"
Autoscroll
slow
fast
+/-
esc
set tempo
stop
Aquí esta la tablatura de bajo para Soledad, una de mis
canciones favoritas de esta banda. Es una canción muy
simple. Espero que les guste.

~ = dejar sonar la nota
// = slide

Intro
-------------|
-------------|
-------5~-9~-|
-0~-7~-------|

Para los versos puedes tocar cualquiera de las siguientes:
Las líneas de los versos se repiten cuanto sea necesario.

Opción 1
-----------------------------------------|
-----------------------------------------|
7-7-777-----------5-5-555-//-9-9-999-//--|
--------7-7-777-7--------------------//0-|

Opción 2
-----------------------------------------|
-----------------------------------------|
7-7-777-----------5-5-555 //-9-9-999-7-9-|
--------7-7-777-7------------------------|

Coro (repetir cuanto sea necesario)
-----------------------------------------|
---------------------------7-7---7-------|
7-7-777-----------9-9-9999-----9---9-7-9-|
--------7-7-777-7------------------------|

El final es igual al INTRO.
Suggest correction
Give kudos to tab author, rate the tab!
1 2 3 4 5
comments
print report bad tab
guest
You may want to rate the tab now too:
select rating
Wanna post a correction for this tab? Suggest correction