Oops, an error
Loading. Please wait.

Voces Lejanas Bass Tab

18 views 1 this week
no commentswrite comment
1 2 3 4 5
3 more votes to show rating
add to favorites
launch autoscroll
font size
0
reset
guitar tuner
Autoscroll
slow
fast
+/-
esc
set tempo
stop
Help us to improve Ultimate-Guitar.com Take our survey!
×
Que tal gente aquí les va una muy buena.
 * = dejar sonando la cuerda
INTRO
G---------------------------------------------------------------------
D--------------------------4-4-4-44--------12-12-12-12-12-------------
A----------4-4-4-44--------------------------------------------...----
E-5-5-5-55---------5-5-5-55--------5-5-5-55---------------------------

G---------------------------------------------------------------------
D---------------------------------------------------------------------
A---------4-4-4-44--------4-4-4-44------------------------------------
E-5-5-5-55---------5-5-5-55--------5-5-5-55---------------------------

VERSO I
G---------------------------------------------------------------------
D-----------------------(12-12-12-12-12)x2----------------------------
A--------------4-4-4-4-4---------------------------------------...----
E-(5-5-5-5-5)x2---------------------------(5-5-5-5-5)x2---------------

G---------------------------------------------------------------------
D-(12-12-12-12-12)x3--------------------(12-12-12-12-12)x2-----...----
A-------------------------------4-4-4-4-4-----------------------------
E------------------(5-5-5-5-5)x2--------------------------------------

G--------------(9-9-9-9-9)x2------------------------------------------
D---------------------------------------------------------------------
A---------------------------------------------------------------------
E-(5-5-5-5-5)x2-------------------------------------------------------

VERSO II
G---------------------------------------------------------------------
D---4*-----12*-------------(4-4-4-4-4)x2---------(12-12-12-12-12)x3---
A-7*------------------------------------------------------------------
E-----7*-0*---(5-5-5-5-5)x2-------------5-5-5-5-5---------------------

G---------------------------------------------------------------------
D--------------(4-4-4-4-4)x2------------------------------------------
A---------------------------------------------------------------------
E-(5-5-5-5-5)x2-------------------------------------------------------

CORO
G---------------------------------------------------------------------
D----------(12-12-12-12-12)x3-----------------------------------------
A---------------------------------------------------------------------
E-5-5-5-5-5------------------5-5-5-5-5--------------------------------
Rep. Intro

VERSO III
G---------------------------------------------------------------------
D--------------(12-12-12-12-12)x3-------------(12-12-12-12-12)x3------
A---------------------------------------------------------------------
E-(5-5-5-5-5)x2------------------(5-5-5-5-5)x2------------------------

G-----------------------------------------(9-9-9-9-9)x2---------------
D--------------(12-12-12-12-12)x3-------------------------------------
A---------------------------------------------------------------------
E-(5-5-5-5-5)x3------------------5-5-5-5-5----------------------------

Rep. 	Verso II
Coro x3                             Fin /////.//
Suggest correction
Give kudos to tab author, rate the tab!
1 2 3 4 5
comments
print report bad tab
guest
You may want to rate the tab now too:
select rating
Wanna post a correction for this tab? Suggest correction