Oops, an error
Loading. Please wait.

Cold Beer And Remote Control chords

133 views 1 this week
no commentswrite comment
1 2 3 4 5
1 last vote to show rating
add to favorites
×
Save as Personal and add changes to this tab that will be seen only by you. Learn more ›
×
You can save this tab as Personal to edit and correct it or add notes. All changes will be seen only by you. Learn more »
launch autoscroll
font size
0
reset
transpose
0
reset
simplify chords
display chords
guitar tuner
edit
Autoscroll
slow
fast
+/-
esc
set tempo
stop
Author
Difficulty
About this tab version
The tab for the intro and outro is included - In the original, it's played on two guitars, but it's tabbed it so it can be played on one. Was this info helpful? Yes No
Strumming
There is no strumming pattern for this song yet. and get +5 IQ
Artist - Indigo Girls
Song - Cold Beer and Remote Control
Album - Come On Now Social

[Intro Tab]
 (F)                               (C)
E|----------------|----------------|----------------|----------------|
B|-0-0-0---------0|-0-0-0----------|----------------|----------------|
G|-------2-2-2-2--|-------2-2-2-2-0|-0-0-0----------|----------------|
D|----------------|------------ ---|-------3-3-3-3-0|-0-0-0-2-2-2-2-2|
A|-3-3-3-3-3-3-3-3|-3-3-3-3-3-3-3-3|-3-3-3-3-3-3-3-3|-3-3-3-3-3-3-3-3|
E|----------------|----------------|----------------|----------------|
 (F)                               (C)
E|----------------|----------------|----------------|----------------||
B|-0-0-0---------0|-0-0-0-1-1-1-1-1|-1---1---1---1--|-1---1----------||
G|-------2-2-2-2--|----------------|----------------|----------------||
D|----------------|----------------|----------------|----------------||
A|-3-3-3-3-3-3-3-3|-3-3-3-3-3-3-3-3|---3---3---3---3|---3---3--------||
E|----------------|----------------|----------------|----------------||
                                                               (All of my days...)


[Verse 1]
          F6sus2
All of my days have been misspent
                 Csus2    C             Csus2   C
Stuffing out the sofa and the antenna's bent
          F6sus2        
Inside my heart's bustin' out at the seams
                 C         G5       C     G/B   C
I work for the impossible American dream


[Verse 2]
        F6sus2
I got a job at the grocery store
               Csus2  C          Csus2  
A few bucks an hour and not much more
C               F6sus2
The world comes in just to take things away
                C               G5         C    
And eat it all up and then they sleep into day 


[Chorus]        
             Am
I try not to care I would lose my mind
                   F6sus2     G          Am
Running 'round the same thing time after time
Only two things bound to soothe my soul 
     F6sus2     G5       Fmaj7    Csus2
Cold beer and remote control 


[Verse 3]
                F6sus2
Now once upon a time I was nobody's fool
             Csus2   C             Csus2
Two jobs and showing up for school
C                 F6sus2
I guess it comes apart so little by little
                      C                 G5              C
You don't know you're there till you're stuck in the middle
        

[Chorus]
                Am
So I try not to care I would lose my mind
                   F6sus2     G             Am
Running 'round the same thing time after time
Only two things bound to soothe my soul 
     F6sus2     G5       Fsus2
Cold beer and remote control 


[Bridge]
        G/B
Sit down
              Fsus2
The room is dark
                G/B                                     Fsus2   
The blurry graffiti on the benches across at the public park
                Am
The plastic's black and buttoned 
                D5
The haze is blue
          F5                 G5
And all I want is nothing to do 


[Verse 4]
                   F6sus2
'Cause it's a long walk to the bus stop 
            Csus2    C             Csus2
It's a long wait for the turning clock
C                   F6sus2
There’s a two-tired car sitting up on the block
                  C               G5
And things I put aside like that pile of rocks 


[Chorus]
             Am
I try not to care I would lose my mind
                   F6sus2     G             Am
Running 'round the same thing time after time
Only two things bound to soothe my soul 
     F6sus2     G5        C             
Cold beer and remote control 


[Chorus]
G/B          Am
I try not to care I would lose my mind
                   F6sus2     G5           Am
Running 'round the same thing time after time
Only two things bound to soothe my soul 
     F6sus2     G5       F6sus2         
Cold beer and remote control 


[Outro]
   Csus2     C     Csus2    C
Yeah
        F6sus2                  Csus2   C
I said cold beer and remote control
   Csus2   C    F6sus2
Yeah
                   Csus2
Beer and remote control 
C       Csus2   C
Yeah
    (F)                                    (C)
E|----------------|----------------|----------------|----------------|
B|-0-0-0---------0|-0-0-0----------|----------------|----------------|
G|-------2-2-2-2--|-------2-2-2-2-0|-0-0------------|----------------|
D|----------------|----------------|-------3-3-3-3-0|-0-0-0-2-2-2-2-2|
A|-3-3-3-3-3-3-3-3|-3-3-3-3-3-3-3-3|-3-3-3-3-3-3-3-3|-3-3-3-3-3-3-3-3|
E|----------------|----------------|----------------|----------------|
    (F)                                    (C)
E|----------------|----------------|----------------|----------------||
B|-0-0-0---------0|-0-0-0-1-1-1-1-1|-1---1---1---1--|-1--------------||
G|-------2-2-2-2--|----------------|----------------|----------------||
D|----------------|----------------|----------------|----------------||
A|-3-3-3-3-3-3-3-3|-3-3-3-3-3-3-3-3|---3---3---3---3|-3--------------||
E|----------------|----------------|----------------|----------------||


            
            
Suggest correction
Creating personal tab
Creating personal tab
You can edit any tab online and save it as your Personal.

You can edit, replace or remove any tab part or add personal notes – all changes will be seen only by you.

Personal tabs can be accessed anytime from any device, even offline.
Learn more »
Give kudos to tab author, rate the tab!
1 2 3 4 5
comments
print report bad tab
guest
You may want to rate the tab now too:
select rating
Wanna post a correction for this tab? Suggest correction