Oops, an error
Loading. Please wait.

Love Of Our Lives tab

37 views 1 this week
no commentswrite comment
1 2 3 4 5
3 more votes to show rating
add to favorites
×
Save as Personal and add changes to this tab that will be seen only by you. Learn more ›
×
You can save this tab as Personal to edit and correct it or add notes. All changes will be seen only by you. Learn more »
launch autoscroll
font size
0
reset
how to read this tab
guitar tuner
edit
Autoscroll
slow
fast
+/-
esc
set tempo
stop
About this tab version
Tuning here is DADF# AD. The guitar part is repetitive so I've tabbed the intro which is played through the verses. The only difference is the last chord. Was this info helpful? Yes No
[Intro]
(Play twice)
D |--0--0--0--0--0--0--0--0--0-|-0--0--0--0--0--0--0--0-------|
A |--0--0--0--0--0--0--0--0--0-|-0--0--0--0--0--0--0--0-------|
F#|--0--1--3--3--3--3--3--3--1-|-0--1--3--3--3--3--3--3-------|
D |--0--2--4--4--4--4--4--4--2-|-0--2--5--5--5--5--5--4-------|
A |--0--0--0--0--0--0--0--0--0-|-0--0--0--0--0--0--0--0-------|
D |--0--0--0--0--0--0--0--0--0-|-0--0--0--0--0--0--0--0-------|
       (Slide up)                 (Slide up)

[Verse]
D |--0--0--0--0--0--0--0--0--0-|-0--0--0--0--0--0--0--0-------|
A |--0--0--0--0--0--0--0--0--0-|-0--0--0--0--0--0--0--0-------|
F#|--0--1--3--3--3--3--3--3--1-|-0--1--3--3--3--3--3--3-------|
D |--0--2--4--4--4--4--4--4--2-|-0--2--5--5--5--5--5--4-------|
A |--0--0--0--0--0--0--0--0--0-|-0--0--0--0--0--0--0--0-------|
D |--0--0--0--0--0--0--0--0--0-|-0--0--0--0--0--0--0--0-------|
       (Slide up)                 (Slide up)
   (1) I opened my hands up to see what I got
   (2) long
   (3) I've been banking on a broken machine

D |--0--0--0--0--0--0--0--0--0-|-0--0--0--0--0--0--0--0------0-|
A |--0--0--0--0--0--0--0--0--0-|-0--0--0--0--0--0--0--0------0-|
F#|--0--1--3--3--3--3--3--3--1-|-0--1--3--3--3--3--3--3------1-|
D |--0--2--4--4--4--4--4--4--2-|-0--2--5--5--5--5--5--4------0-|
A |--0--0--0--0--0--0--0--0--0-|-0--0--0--0--0--0--0--0------2-|
D |--0--0--0--0--0--0--0--0--0-|-0--0--0--0--0--0--0--0------2-|
       (Slide up)                 (Slide up)
  (1) My    days slip like coins        into a slot,     they are gone, the shadows lie
  (3) Left unattended like most of my dreams. Rusted components of an unmarked song

[Chorus]
D |-------------0------------------------|---0----------------------0---0----------|
A |-------------0------------------------|---0----------------------0---0----------|
F#|-------------0------------------------|---0----------------------0---0----------|
D |-------------0------------------------|---0----------------------0---0----------|
A |-------------5------------------------|---7----------------------9---7----------|
D |-------------5------------------------|---7----------------------9---7----------|
   We've been staring down the brilliant dream, the sun burns our eyes

D |--------------0-------------|--0----------------------------------------------|
A |--------------0-------------|--0----------------------------------------------|
F#|--------------0-------------|--0----------------------------------------------|
D |--------------0-------------|--0----------------------------------------------|
A |--------------5-------------|--7----------------------------------------------|
D |--------------5-------------|--7----------------------------------------------|
   We've been fighting for the love of our lives

[Verse]
D |--0--0--0--0--0--0--0--0--0-|-0--0--0--0--0--0--0--0-------|
A |--0--0--0--0--0--0--0--0--0-|-0--0--0--0--0--0--0--0-------|
F#|--0--1--3--3--3--3--3--3--1-|-0--1--3--3--3--3--3--3-------|
D |--0--2--4--4--4--4--4--4--2-|-0--2--5--5--5--5--5--4-------|
A |--0--0--0--0--0--0--0--0--0-|-0--0--0--0--0--0--0--0-------|
D |--0--0--0--0--0--0--0--0--0-|-0--0--0--0--0--0--0--0-------|
       (Slide up)                 (Slide up)
   (4) All around us, things come apart
   (5) Person to person, nation to nation, 
   (6) I've been banking on a broken machine
   (7) Fire, water, oxygen, of any combination starts the reaction
   (8) There is no mastermind of modern day 

D |--0--0--0--0--0--0--0--0--0-|-0--0--0--0--0--0--0--0------0-|
A |--0--0--0--0--0--0--0--0--0-|-0--0--0--0--0--0--0--0------0-|
F#|--0--1--3--3--3--3--3--3--1-|-0--1--3--3--3--3--3--3------1-|
D |--0--2--4--4--4--4--4--4--2-|-0--2--5--5--5--5--5--4------0-|
A |--0--0--0--0--0--0--0--0--0-|-0--0--0--0--0--0--0--0------2-|
D |--0--0--0--0--0--0--0--0--0-|-0--0--0--0--0--0--0--0------2-|
       (Slide up)                 (Slide up)
  (4) Broken pieces, broken hearts. Fix me, oil me, match me with the next best thing
  (5) Heels dug in, no communication, While the time speaks of weathering.
  (8) who can blueprint a plan to make love stay, steady and weatherproof, usher in a new revcolution

[Chorus]
D |-------------0-------------------------|--0----------------------0---0----------|
A |-------------0-------------------------|--0----------------------0---0----------|
F#|-------------0-------------------------|--0----------------------0---0----------|
D |-------------0-------------------------|--0----------------------0---0----------|
A |-------------5-------------------------|--7----------------------9---7----------|
D |-------------5-------------------------|--7----------------------9---7----------|
   We've been staring down the brilliant dream, the sun burns our eyes

D |--------------0-------------|--0-----------------|
A |--------------0-------------|--0-----------------|
F#|--------------0-------------|--0-----------------|
D |--------------0-------------|--0-----------------|
A |--------------5-------------|--7-----------------|
D |--------------5-------------|--7-----------------|
   We've been fighting for the love of our lives

D |--0--0--0--0--0--0--0--0--0-|-0--0--0--0--0--0--0--0-------|
A |--0--0--0--0--0--0--0--0--0-|-0--0--0--0--0--0--0--0-------|
F#|--0--1--3--3--3--3--3--3--1-|-0--1--3--3--3--3--3--3-------|
D |--0--2--4--4--4--4--4--4--2-|-0--2--5--5--5--5--5--4-------|
A |--0--0--0--0--0--0--0--0--0-|-0--0--0--0--0--0--0--0-------|
D |--0--0--0--0--0--0--0--0--0-|-0--0--0--0--0--0--0--0-------|
       (Slide up)                 (Slide up)

D |--0--0--0--0--0--0--0--0--0-|-0--0--0--0--0--0--0--0-------|
A |--0--0--0--0--0--0--0--0--0-|-0--0--0--0--0--0--0--0-------|
F#|--0--1--3--3--3--3--3--3--1-|-0--1--3--3--3--3--3--3-------|
D |--0--2--4--4--4--4--4--4--2-|-0--2--5--5--5--5--5--4-------|
A |--0--0--0--0--0--0--0--0--0-|-0--0--0--0--0--0--0--0-------|
D |--0--0--0--0--0--0--0--0--0-|-0--0--0--0--0--0--0--0-------|
       (Slide up)                 (Slide up)

[Amy's Instrumental]
D |--0--0--0--0--0--0--0--0--0-|-0--0--0--0--0--0--0--0-------|
A |--0--0--0--0--0--0--0--0--0-|-0--0--0--0--0--0--0--0-------|
F#|--0--1--3--3--3--3--3--3--1-|-0--1--3--3--3--3--3--3-------|
D |--0--2--4--4--4--4--4--4--2-|-0--2--5--5--5--5--5--4-------|
A |--0--0--0--0--0--0--0--0--0-|-0--0--0--0--0--0--0--0-------|
D |--0--0--0--0--0--0--0--0--0-|-0--0--0--0--0--0--0--0-------|

D |--0--0--0--0--0--0--0--0--0-|-0--0--0--0--0--0--0--0----0---|
A |--0--0--0--0--0--0--0--0--0-|-0--0--0--0--0--0--0--0----0---|
F#|--0--1--3--3--3--3--3--3--1-|-0--1--3--3--3--3--3--3----0---|
D |--0--2--4--4--4--4--4--4--2-|-0--2--5--5--5--5--5--4----1---|
A |--0--0--0--0--0--0--0--0--0-|-0--0--0--0--0--0--0--0----2---|
D |--0--0--0--0--0--0--0--0--0-|-0--0--0--0--0--0--0--0----2---|

            
            
Suggest correction
Creating personal tab
Creating personal tab
You can edit any tab online and save it as your Personal.

You can edit, replace or remove any tab part or add personal notes – all changes will be seen only by you.

Personal tabs can be accessed anytime from any device, even offline.
Learn more »
Give kudos to tab author, rate the tab!
1 2 3 4 5
comments
print report bad tab
guest
You may want to rate the tab now too:
select rating
Wanna post a correction for this tab? Suggest correction