Oops, an error
Loading. Please wait.

A La Luz De La Luna Tab

425 views 6 this week
no commentswrite comment
1 2 3 4 5
3 more votes to show rating
add to favorites
×
Save as Personal and add changes to this tab that will be seen only by you. Learn more ›
×
You can save this tab as Personal to edit and correct it or add notes. All changes will be seen only by you. Learn more »
save as personal
new!
launch autoscroll
font size
0
reset
how to read this tab
guitar tuner
Autoscroll
slow
fast
+/-
esc
set tempo
stop
Este tema tiene la particularidad de que la guitarra tiene afinada
la sexta cuerda en un do bajo (les conviene utilizar un afinador).

                  Riff Intro

e|---------------------|-------------------|
b|---------------------|-------------------|
g|---------------------|-------------------|
d|---------------------|--1b-----1b--------|
a|----3----------------|-----3-----3----1--|
c|-0-------------------|-------------------|
                      ***

                     Riff 1
       DO     |   DO   |   DO     |  LA#   |
e|---------------------|-------------------|
b|---------------------|-------------------|
g|---------------------|-------------------|
d|------10-----10---10-|------10-----8---10|
a|-10-10--10-10--10----|-10-10--10-10--10--|
c|---------------------|-------------------|
                      ***

                     Riff 2
       SOL             |   SOL               |
e|---------------------|---------------------|
b|---------------------|---------------------|
g|---------------------|---------------------|X3 (sigue abajo)
d|-x-x-4s5---x-x-4s5---|-x-x-4s5---x-x-x-x---|
a|-x-x-4s5---x-x-4s5---|-x-x-4s5---x-x-x-x---|
c|---------------------|---------------------|

 |         SOL         |   LA5   |   SI5   |
e|---------------------|-------------------|
b|---------------------|-------------------|
g|---------------------|-------------------|
d|-x-x-4s5---x-x-4s5---|-x-x-7----x-x-9----|
a|-x-x-4s5---x-x-4s5---|-x-x-7----x-x-9----|
c|---------------------|-------------------|
                      ***

                     Riff 3
          DO5          |         DO
e|---------------------|-------------------|
b|----5----------------|-------------------|
g|----5----------------|-------------------|
d|----5----------------|--1b-----1b--------|
a|----3----------------|-----3-----3----1--|
c|-0-------------------|-------------------|
                      ***

Nota: Los pequeños arreglos con segunda guitarra son punteos en la pentatónica
de Do menor

Riff 1 (o Do-La#)
Juega intacta es un diamante
vuelve a casa arrastrando sus tesoros.

Ella sabe mostrarme el mundo
y éso no la hace una creída.

Riff 2 (o Sol)
Bebe cerveza a punto
(a punto calentito)
sale a correr la noche
             LA5  SI5
y hace lindo picar y reir.

Riff 1

Riff 1 (o Do-La#)
Casi escucho los latidos
de su corazón cuando se agita
grita y jura que no sabe
que se puede hacer con su joven vida.

Riff 2 (o Sol)
Gira y baila con sus manos
y los bolsillos traseros
Cree que no vale la pena
            LA5      SI5
esa herida que no cierra más.

Riff 3

SOL                    FA
   En esas horas se la ve tan linda
SOL
   que finalmente uno aprende
RE#5   FA5                  DO
los...... secretos de esta vida.

Riff 1

Riff 1 (o Do-La#)

No hay manera de que pueda
quedarse en mis brazos esta noche
No le gusta verme triste.
¿Sabe acaso qué trae tu futuro?


Riff 2 (o Sol)
Bebe cerveza a punto
(a punto calentito)
sale a correr la noche
             LA5  SI5
y hace lindo picar y reir.

El solo del final en base a Riff 1 hasta fade out


Espero que les sirva gente, es un temazo para tocarlo al palo
con una disto bien
piola o bien, hacerlo acústico con los acordes
abiertos... Vamos Indio!!
Suggest correction
Give kudos to tab author, rate the tab!
1 2 3 4 5
comments
print report bad tab
guest
Wanna post a correction for this tab? Suggest correction