Oops, an error
Loading. Please wait.

Black Russian Tab

75 views 1 this week
no commentswrite comment
1 2 3 4 5
3 more votes to show rating
add to favorites
×
Save as Personal and add changes to this tab that will be seen only by you. Learn more ›
×
You can save this tab as Personal to edit and correct it or add notes. All changes will be seen only by you. Learn more »
save as personal
new!
launch autoscroll
font size
0
reset
how to read this tab
guitar tuner
Autoscroll
slow
fast
+/-
esc
set tempo
stop
 Intro:
 D#
|---33333333-33-4-33-666--|
|---44444444-44-4-44-444--|
|---33333333-33-3-33-333--| X8
|-------------------------|
|-------------------------|
|-------------------------|


 Empieza el verso:
 Riff en D#
|------------|-------|
|------------|-------|
|------------|-------|
|------------|-------|
|--6------6--|-------|
|---8-6-8----|-8-6-8-|


|----------|-------|
|----------|-------|
|----------|-------|
|----------|-------| x3
|--------6-|-------|
|--8-6-8---|-8-6-8-|


 Te quiero tanto...

|---33333333-33-4-33-666--|
|---44444444-44-4-44-444--|
|---33333333-33-3-33-333--|
|-------------------------|
|-------------------------|
|-------------------------|


Punteo:
[br= hacer un bending sobre la nota y luego volver a la nota original]

|---------------------|----------------|
|----------------11~--|----------------|
|----------12br12-----|-----12br12-----| x2
|---------------------|-----------13~--|
|---------------------|----------------|
|---------------------|----------------|


Estribillo: [G# F# Sib]
Punteos sobre el estribillo:

|----------------------------|
|--------------------11~~----|
|-----------11~~-13~~--------|
|-13-11-13~~-------------12~-|
|----------------------------|
|----------------------------|


|-----------------------------------------------------------|
|-----------------------------------------------------------|
|-----------11~~--------------------------------------------|
|-13-11-13~~-----11~-8-~-8-/1313-1313/-1111-1111/88-888-8~~-|
|-----------------------------------------------------------|
|-----------------------------------------------------------|


|-----------------------------------------|
|--------------------11~~-----------------|
|-----------11~~-13~~---------------------|
|-13-11-13~~-------------12~--13-11----12-|
|-----------------------------------13----|
|-----------------------------------------|

|---------------------------------------|
|-------------/11~~11~~~11~~~11~~~11~~~-|
|---------------------------------------|
|--13~-11~-8~---------------------------|
|---------------------------------------|
|---------------------------------------|


Punteo final,luego del estribillo:

|-----------------------11----------------------------|
|------------------11-13--13-11-----------------------|
|----------------13-------------10~----12-10----------|
|--13-11-13~~-------------------------------13-10-13~-|
|-----------------------------------------------------|
|-----------------------------------------------------|


|---------11--------------|
|----11-13--13-11~~~11~~~-|
|--13---------------------|
|-------------------------|
|-------------------------|
|-------------------------|


Letra: (la letra esta toda bien, la copie desde el CD original)
riff en D#

La mordida no es grave como ladrar
Cuando es fácil cazar... (sobra la daga!)
De cara al animal

Te quiero tanto...
que me hace daño
Y si algo pasa que nos separe (seras hermosa!)

Un black russian podrá hacerme prometer
Cosas que no podre... (mira mis ojos!)
Aunque quiera, cumplir...

Yo siempre supe como es el juego
(Lucha en el barro con tus amigas)


Estribillo: [G# F# Sib]

Tu mirada ve los misterios prohibidos
Contempla, en las sombras, con piedad
Me haces muchas veces invisible
Y toma mi mano y me obliga a reír

Te quiero tanto
Tu belleza llego dulcemente hasta mi
(Terminaba el amor a carcajadas)
Los rumores al fin se hacían ciertos...
Muertos de risas, perdiendo el tiempo
Después... un día...
Todo fue inútil

Si pudiera jugar para siempre con vos
Un ardid del amor (tu pelo suave)
Jugaría con mi fe

Te quiero tanto...
Que me hace daño
Y si algo pasa... seras hermosa!

Tu mirada ve los misterios prohibidos
Contempla, en las sombras, con piedad
Me haces muchas veces invisible
Y toma mi mano y me obliga a reír


pupi_pr@
Suggest correction
Give kudos to tab author, rate the tab!
1 2 3 4 5
comments
print report bad tab
guest
Wanna post a correction for this tab? Suggest correction