Oops, an error
Loading. Please wait.

Ceremonia Durante La Tormenta Tab

69 views 1 this week
no commentswrite comment
1 2 3 4 5
3 more votes to show rating
add to favorites
launch autoscroll
font size
0
reset
how to read this tab
guitar tuner
×
Best way to learn
"Ceremonia Durante La Tormenta"
Autoscroll
slow
fast
+/-
esc
set tempo
stop
Riff:

 1°guitarra:

   LA
|--------------------------------------|
|---78-10-12--------------787----------|
|-9---------------------9-----9--------|
|--------------------------------------|
|--------------------------------------|
|--------------------------------------|


 2°guitarra:

|--------------------------------------|
|--------------------------------------|
|--------------76----------------------|
|-----------------97--------------97---|
|-----------------------------------7--|
|--------------------------------------|


 1°guitarra:

 SOL
|---------------------------------------|
|--87-------------------87--------------|
|-----779------------------779----------|
|---------------------------------------|
|---------------------------------------|
|---------------------------------------|


 2°guitarra:

|---------------------------------------|
|---------------------------------------|
|---------------------------------------|
|------------7-5-4-5--------------45-7--|
|--------------------------------7------|
|---------------------------------------|


 Intermedio:  FA#m - MI - RE

|-------2-----------------0---------------2------------2------|
|------2-------2----------------0-----3--3-----3---3--3----3--|
|-----2-------2----------1-----1------2-2-----2----2-2----2---|
|---4--------4--------2-2-----2-------0------0-----0-----0----|
|---4-----------------2---------------0------------0----------|
|---2------2----------0------0--------------------------------|


 Solo final:

 poderoso dios de amor...

|-----------------------------------------------------------------
|--14~~~~----15h(14)15~~~~---14~~~~~-----15h(14)15--17~~~~14~~~~--
|-----------------------------------------------------------------
|-----------------------------------------------------------------
|-----------------------------------------------------------------
|-----------------------------------------------------------------


-----------------------------------|
--15h(14)15-14~--15h(14)15-17-14~--|
-----------------------------------|
-----------------------------------|
-----------------------------------|
-----------------------------------|

|----------------------------------------------
|--12br-p(10)12-10~~~-----8~~--7~~--5~~/(3)----
|----------------------------------------------
|----------------------------------------------
|----------------------------------------------
|----------------------------------------------


-------------------------------------------------------------|
--10/(8)-8/(7)-7/(5)-5/(3)----2/(3)-5/(3)-2~~~~----3h(2)3-5~-|
-------------------------------------------------------------|
-------------------------------------------------------------|
-------------------------------------------------------------|
-------------------------------------------------------------|


pupi_pr@
Suggest correction
Give kudos to tab author, rate the tab!
1 2 3 4 5
comments
print report bad tab
guest
You may want to rate the tab now too:
select rating
Wanna post a correction for this tab? Suggest correction