Oops, an error
Loading. Please wait.

No Es Dios Todo Lo Que Reluce Tab

65 views 1 this week
no commentswrite comment
1 2 3 4 5
3 more votes to show rating
add to favorites
launch autoscroll
font size
0
reset
how to read this tab
guitar tuner
Autoscroll
slow
fast
+/-
esc
set tempo
stop
intro con bajo:

G|-----------------------------|
D|-----------------------------|
A|--55-------------55----------|
e|----66-33-55-------66-33-55--|


INTRO: [RE5 - LA#5]X4  LA5

Punteo: [Sobre RE5 y LA#5]

|-----------|---------|
|---10-8----|---------|
|--7-----9--|-- X 4 --|
|-----------|---------|
|-----------|---------|
|-----------|---------|

Segundo punteo: [Sobre LA5]

|-------------------------------------|
|--------------------------/10~~~~~~~-|
|---------/9~~~~~~~-------------------|
|------------------7~~~~~-------------|
|-------------------------------------|
|-------------------------------------|

Verso: [RE5 - LA#5]X4


Esta parte esta sobre LA5:

LA5
que hiere nuestros ojos
en un lujo fugaz (punteo)
y no deja mirar
y no hay alivio.(punteo)

punteo:
|-----------------|
|---/10~~~~~~~~---|
|-----------------|
|-----------------|
|-----------------|
|-----------------|

A        G       A                G
Sonríen todo el tiempo y se hacen ver
A         G           A         G
Por lo felices que están de sonreír.


2da guitarra sobre LA y SOL:

|--12-12----10---10----|
|--14---14--12-12--12--|
|--14-------12---------|
|--14-------12---------|
|----------------------|
|----------------------|


Solo 1:

|--------------------------------|----------------------------------------|
|--------------------------------|-----------------------8-10-8-10/-15~~~-|
|--------------------------------|----6---------------6-9-----------------|
|--5~----5---------5~----5-------|--7~-7-5----5----7~7--------------------|
|-----4-7-7-4---------4-7-7-4----|---------7-4----------------------------|
|----5-------5~------5-------5~--|----------------------------------------|


LA5
voy a bailar llorando
sobre mis propios huesos.
Voy a cambiar de estrella cantando

Punteo sobre esta parte en LA5 (Escuchar bien la cancion)

|--------------------|---10--9h10p9--------------------------10----|
|--------------------|-------------10~----10-9h109br---7h9-10---10-|
|--67-9-9br--9h7h6~--|---------------------------------------------|
|--------------------|---------------------------------------------|
|--------------------|---------------------------------------------|
|--------------------|---------------------------------------------|


Y esa otra cruz
te toca a vos
hacer como que no es hoy.

En este verso la base de la guitarra hace esto:
|-----------------|---------|------------|
|-----------------|---------|------------|
|--77-------------|-- x 3 --|--777-------|
|--77-xxx-88--xx--|---------|--777-88-8--|
|--55-xxx-88--xx--|---------|--555-88-8--|
|-----xxx-66--xx--|---------|------66-6--|


Solo 2: [Base en LA]
En la base de este solo la 2da guitarra hace esto:

|------------------------|--------------------------------------|
|------------------------|--------------------------------------|
|--2~~------------2~-22--|--lo hace 2 veces, luego sigue en LA--|
|--2~~------------2~-22--|--------------------------------------|
|--0~~-------45~--0~-00--|--------------------------------------|
|-------5h6-6------------|--------------------------------------|


1era guitarra:
|----------------------------|-------------10bbbr987-|
|--------8b-8br7~------------|-------6-89------------|
|--6h7-9---------9--7h6b~~~--|--6-7-9----------------|
|----------------------------|-----------------------|
|----------------------------|-----------------------|
|----------------------------|-----------------------|

|--15b~~14-15b~~-13-12---|
|---------------------14-|
|------------------------|
|------------------------|
|------------------------|
|------------------------|

                           |---x3 y se toca rapido|
|------12h13-15h13-12-----|---12h13-15h13h12--------|------------|
|-13h14--------------14-13|-14--------------14h13---|--17bbbr~~~-|
|-------------------------|-------------------------|------------|
|-------------------------|-------------------------|------------|
|-------------------------|-------------------------|------------|
|-------------------------|-------------------------|------------|


Final: (con Wha-Wha)

|--10-10-----------|---------|
|--10-10-----------|---------|
|--10-10-----------|-- x 4 --|
|--12-12-----------|---------|
|------------------|---------|
|---------x-6~-6~--|---------|


 En esta parte darle a la nota efecto con pedal de volumen:
|-----------------------------------------------|
|-----------------------------------------------|
|--7-----7-----7----------------7---------------|
|--7-----7-----7-----8-88--88---7---------------|
|--5-----5-----5-----8-88--88---5---------------|
|--------------------6-66--66-------------------|


.Los solos no se si estan 100% bien,si los saco mejor los corrijo.
pupi_pr@
Suggest correction
Give kudos to tab author, rate the tab!
1 2 3 4 5
comments
print report bad tab
guest
Wanna post a correction for this tab? Suggest correction