Oops, an error
Loading. Please wait.

Tsunami Tab

26 views 1 this week
no commentswrite comment
1 2 3 4 5
3 more votes to show rating
add to favorites
launch autoscroll
font size
0
reset
how to read this tab
guitar tuner
Autoscroll
slow
fast
+/-
esc
set tempo
stop
Help us to improve Ultimate-Guitar.com Take our survey!
×
 Riff:

|-----------------------------------|
|---8~---10~-10101010-8108-12--88~--|
|-9----9---------------------9------|
|-----------------------------------|
|-----------------------------------|
|-----------------------------------|

 Base:
 Em       C          Am        Em
|-------------------------------------|
|-------------------------------------|
|--9~~~------------------------9~~----|
|--9~~~---10~~~------7~~---77--9~~----|
|--7~~~---10~~~--xx--7~~---77--7~~----|
|--0~~~---8-~~~--xx--5~~---55--0~~----|


Em                    C
 Sospecho que ésta vez me toca a mí
Am              Em
 Pagar toda la puta fiesta..


G               Am
 No puede servirme en nada
G               Am
 Ganar todo el mundo así
G             Am                   Em
 Si pierdo mi alma nada va a estar bien


   G        Am                  Em
|---------------------|------|------------------|
|---------------------|------|------------------|
|---------------------|--x3--|--9--99-99-99-99--|
|--5~~-------7~~------|------|--9--99-99-99-99--|
|--5~~-------7~~------|------|--7--77-77-77-77--|
|--3~~-------5~~------|------|--0--00-00-00-00--|


punteo sobre [G - Am]
  G            Am
|---------------------------|------|
|---------------------------|------|
|--9/(12)12~----129/(14)14--|--x3--|
|---------------------------|------|
|---------------------------|------|
|---------------------------|------|


 Base del solo:
 Am
|----------------------|
|----------------------|
|----------------------|
|--77-77---77-7---5/7--|
|--77-77---77-7---5/7--|
|--55x55-x-55-5---3/5--|

 Solo:
 con wha-wha
[no creo que este 100% bien el solo, porque con el wha-wha
 es dificil sacar nota por nota]


|-----------------------------------------------------------|
|-------------------12------15~~~~~--15~~~~~--12~~~~--12~~~-|
|--14bbbb--14h(12)--12------14~~~~~--14~~~~~--12~~~~--12~~~-|
|-----------------14----------------------------------------|
|-----------------------------------------------------------|
|-----------------------------------------------------------|

|--------------------------------------------------|
|------------------1313-10--1313-10--1313-10-1313--|
|-121212121212---x-1212-9---1212-9---1212-9--1212--|
|----------------x---------------------------------|
|----------------x---------------------------------|
|--------------------------------------------------|

|-----------------------------------------------------|
|-----------------------------------------------------|
|--12br-12h(10)--12b---12h(10)--12b----12h(10)--12b---|
|--------------12-------------12--------------12------|
|-----------------------------------------------------|
|-----------------------------------------------------|


|-----------------------------------------------------------|
|-----------------------------------------------------------|
|--12h(10)-------12h(10)---12h(10)--12h(10)---12h(10)-12~~--|
|---------12------------12--------12--------12--------------|
|-----------------------------------------------------------|
|-----------------------------------------------------------|


 Em
 Se va a la ola a beber y chau!
 Va a la ola a joder y chau!
 Va a la ola a joder y chau!
 Va a la ola a joder y chau!
 Va a la ola a joder y chau!

 Em
|----------------|------|
|----------------|------|
|--99-99--999-9--|--x4--|
|--99-99--999-9--|------|
|--77-77--777-7--|------|
|--00-00--000-0--|------|


pupi_pr@
Suggest correction
Give kudos to tab author, rate the tab!
1 2 3 4 5
comments
print report bad tab
guest
You may want to rate the tab now too:
select rating
Wanna post a correction for this tab? Suggest correction