Oops, an error
Loading. Please wait.

Una Rata Muerta Entre Los Geranios Tab

60 views 3 this week
no commentswrite comment
1 2 3 4 5
3 more votes to show rating
add to favorites
launch autoscroll
font size
0
reset
how to read this tab
guitar tuner
×
Best way to learn
"Una Rata Muerta Entre Los Geranios"
Autoscroll
slow
fast
+/-
esc
set tempo
stop
Intro:

|-------------|------------|
|--7777-8888--|------------|
|--5555-5555--|---- x8 ----|
|--7777-7777--|------------|
|-------------|------------|
|-------------|------------|

 Riff:
|-------------------------|
|-------------------------|
|-------------------------|
|-------------------------|
|---7-9109-7~-------------|
|--7------------7/(10)/7--|


 Verso:
|-------------|
|--7777-8888--|
|--5555-5555--|
|--7777-7777--|
|-------------|
|-------------|


 DO
|------------------|------|----------|
|------------------|------|----------|
|--------9----9----|--X4--|---Riff---|
|--10101010-10-10--|------|----------|
|--101010----------|------|----------|
|--8-8-8-----------|------|----------|


 Solo saxo:

|-----------------------|------|
|-----------------------|------|
|-----------------------|--x4--|
|-----------------------|------|
|------------109-----7--|------|
|---7---10---------10---|------|


 Solo:
(efecto:creo que usa un pedal de efecto Phaser
 en modo vibrato, yo uso ese y suena parecido)

|-----------------------|
|------------87-----5---|
|---4---7---------7-----|
|-----------------------|
|-----------------------|
|-----------------------|


 Sobre el solo:

|-19b~~--------------------------|-17b~~-14h17p14h1714h17p14h17-----|
|-------15h17p15h1715h17p15h17b~~|-----------------------------17b~-|
|--------------------------------|----------------------------------|
|--------------------------------|----------------------------------|
|--------------------------------|----------------------------------|
|--------------------------------|----------------------------------|


|-19b~~~21b~~~---------------------------------------|
|---------------17b~-1517151715171517-17171717--20b~-|
|----------------------------------------------------|
|----------------------------------------------------|
|----------------------------------------------------|
|----------------------------------------------------|


pupi_pr@
Suggest correction
Give kudos to tab author, rate the tab!
1 2 3 4 5
comments
print report bad tab
guest
You may want to rate the tab now too:
select rating
Wanna post a correction for this tab? Suggest correction