Oops, an error
Loading. Please wait.

Vino Mariani Tab

98 views 1 this week
no commentswrite comment
1 2 3 4 5
3 more votes to show rating
add to favorites
×
Save as Personal and add changes to this tab that will be seen only by you. Learn more ›
×
You can save this tab as Personal to edit and correct it or add notes. All changes will be seen only by you. Learn more »
save as personal
new!
launch autoscroll
font size
0
reset
how to read this tab
guitar tuner
Autoscroll
slow
fast
+/-
esc
set tempo
stop
Intro:
(Esta intro y el solo es para tocar sin pedal de efecto,
 en la version original se toca con pedal Whammy, con otras notas)
|----15-12------------------------------------------|------|
|---------15-------15-------------------------------|------|
|--------------12----14-----12----------------------|--x2--|
|--12------------14-----------14--12----------1012--|------|
|-----------------------------------12----1012------|------|
|---------------------------------------------------|------|


|-----------------------------------------|
|--xxxx-----------------------------------|
|--xxxx----7--7-----7--7-------------5----|
|--xxxx---57-57----57-57----------57--75--|
|--xxxx---55-55----55-55---57-57--------7-|
|-----------------------------------------|


----------------------------------------|
----------------------------------------|
------------------7--7------579---------|
-----------------57-57----57----7--7~~--|
--57-57---57-57--55-55------------------|
----------------------------------------|

 Verso:
 FA-REm-LAm

|-------------------------------|
|-------------------------------|
|--10-101010---77-777-----------|
|--10x101010x--77-777---77-777--|
|--8-x8-8-8-x--55-555-x-77-777--|
|---------------------x-55-555--|


 ho o o       ho o o       ho o o
|-------------------------------|
|-------------------------------|
|--10-101010---77-777-----------|x2
|--10x101010x--77-777---77-777--|
|--8-x8-8-8-x--55-555-x-77-777--|
|---------------------x-55-555--|


 Tu pulgar...
 (en esta parte el punteo se toca con un efecto,
 yo uso un Uni-Vibe en modo vibrato y suena parecido)

|----------------------------------------------------|
|--171517151715--131213121312-------13~~~------17~x--|
|------------------------------14~~------------------|
|----------------------------------------------------|
|----------------------------------------------------|
|----------------------------------------------------|


|----------------------------------------------------|
|--171517151715--131213121312-------13~~~------------|
|------------------------------14~~------------------|
|----------------------------------------------------|
|----------------------------------------------------|
|----------------------------------------------------|


|----------------------------------------------------|
|--17----------15------------------------------------|
|-----14~~~-------14~~~----12-14~~~~-----------------|
|----------------------------------------------------|
|----------------------------------------------------|
|----------------------------------------------------|


 ho o o        ho o o          ho o o
|----------------------------------------------------|
|--171517151715--131213121312-------13~~~------------|
|------------------------------14~~------------------|
|----------------------------------------------------|
|----------------------------------------------------|
|----------------------------------------------------|


 Intermedio:

|-------------------------------|
|-------------------------------|
|--10-101010---77-777-----------|
|--10x101010x--77-777---77-777--|
|--8-x8-8-8-x--55-555-x-77-777--|
|---------------------x-55-555--|


punteo:(sobre lam)
|-------------------------------------------------|
|-----------------------10br-10br--108------------|
|-------------------------------------97----------|
|---------------------------------------97---5----|
|-------------------------------------------7-7~--|
|-------------------------------------------------|


|-------------------------------|
|-------------------------------|
|--10-101010---77-777-----------|
|--10x101010x--77-777---77-777--|
|--8-x8-8-8-x--55-555-x-77-777--|
|---------------------x-55-555--|


punteo:(sobre lam)
|-------------------------------------------|
|-----------------------15br-15br--1512-----|
|--------------------------------------1512-|
|-------------------------------------------|
|-------------------------------------------|
|-------------------------------------------|


 [Repite Verso]


  Tu corazon,vacilara...
|----------------------------------------------------|
|----------------------------------------------------|
|--14~~---------12~~---------14~~~~~-----------------|
|------12~~~--------14~~~----------------------------|
|----------------------------------------------------|
|----------------------------------------------------|

 ho o o           ho o o             ho o o
|---------------------------------------------------------|
|--171517151715--131213121312-------13~~~-----------------|
|------------------------------14~~--------14141414~~~~~--|
|---------------------------------------------------------|
|---------------------------------------------------------|
|---------------------------------------------------------|


 Solo:

|--15-15-15-15-15-----15-12----------------------------------------|
|--17b17b17b17b17----------15-------15-----------------------------|
|-------------------------------12----14----12---------------------|
|-------------------12------------14----------14--12---------1012--|
|---------------------------------------------------12---1012------|
|------------------------------------------------------------------|


|-----------------------------------|
|-----------------------------------|
|----------------------12/14-1414~~-|
|-12br-121012~~~-----10-------------|
|----------------1012---------------|
|-----------------------------------|


---15b12------------------------------------|
--------15------15--------------------------|
------------12----14---12-------------------|
-12-----------14---------14--12--------1012-|
-------------------------------12--1012-----|
--------------------------------------------|


|-------------------------------15~~~----15bbbr-1512---------------|
|-----------------15bbbbr-15121515~~~---------------1515~~~~--13---|
|--12---14~~~~--------------------------------------------------14-|
|----14------------------------------------------------------------|
|------------------------------------------------------------------|
|------------------------------------------------------------------|


                                             Tipas y cronistas...
--------------------151515---15-17bbbb-------20bbbbb--|
------13/15-15/17-17--17---17-------------------------|
-12/14------------------------------------------------|
------------------------------------------------------|
------------------------------------------------------|
------------------------------------------------------|


 Final:(solo saxo)

|-------------------------------|
|-------------------------------|
|--10-101010---77-777-----------|
|--10x101010x--77-777---77-777--|
|--8-x8-8-8-x--55-555-x-77-777--|
|---------------------x-55-555--|


|----------------------------|
|----------------------------|
|--10~~~---7~~~--------------|
|--10~~~---7~~~----7~~~------|
|--8~~~----5~~~----7~~~------|
|------------------5~~~------|


pupi_pr@
Pupi.
Suggest correction
Give kudos to tab author, rate the tab!
1 2 3 4 5
comments
print report bad tab
guest
Wanna post a correction for this tab? Suggest correction