Oops, an error
Loading. Please wait.

Y Mientras Tanto El Sol Se Muere Tab

164 views 9 this week
no commentswrite comment
1 2 3 4 5
3 more votes to show rating
add to favorites
launch autoscroll
font size
0
reset
how to read this tab
guitar tuner
Autoscroll
slow
fast
+/-
esc
set tempo
stop
Help us to improve Ultimate-Guitar.com Take our survey!
×
Indio Solari: Y Mientras el sol se muere
Intro
E|-------------|-------------|--------------------------|
B|-------------|-------------|--------------------------|
G|---11/12/11--|---7/9/7-----|------------------9/7-----|
D|-------------|-------------|---4/5/7/9/12/11-------9--|
A|---9/10/9----|---5/7/5-----|------------------7/5-----|
E|-------------|-------------|---2/3/5/7/10/9--------7--|

E|-------------|-------------|-------------------------|
B|-------------|-------------|-------------------------|
G|---11/12/11--|---7/9/7-----|---------------7/6-------|
D|-------------|-------------|---4/5/7/9/8/4-------9---|
A|---9/10/9----|---5/7/5-----|---------------5/4-------|
E|-------------|-------------|---2/3/5/7/6/2-------7---|


SIm    RE  DO#m     FA#m
Todavía no use mi milagro de hoy
SIm            RE       DO#m       FA#m
Que corta es la vida, mi amor
SIm      RE
No voy a buscar,
    DO#m       FA#m
Más consuelos tontos no
SIm          RE        DO#      FA#m
Si pasa algo malo esta vez
                   SIm   RE   SOL   FA#
Te voy a buscar
                   SIm   RE   SOL   FA#
En la oscuridad...


Yo no se si pueda volver a encontrarte amor
Si dios no me quiere en tu eternidad
Sueño con que duermo,
No lleno mi tumba aun
Un poquito tarde esta vez se va hacer?

SIm    RE           SOL     FA#
Y mientras tanto el sol se muere
SIm  RE          SOL  FA#
Y no parece importarnos,
SIm      RE           SOL     FA#
Mientras te quiero el sol se apaga
SIm                     RE
Y si dios queda en nada o no existe
      SOL       FA#
Te amare mucho más?
                     SIm   RE  SOL  FA#
Te voy a encontrar
                     SI    RE  SOL   FA#    X  4
En la oscuridad...

[SIm-RE-SOL-FA#]
Algún día pronto una de mis vidas
Va intentar matarme y no va lograr
Como será andar solito allá en la muerte
Hay mi amor, ya sin vos sin tus sueños...


Yo no sabía echarte de menos
Soy un ladrón que robo dolor
Y si te pierdo camino a casa
Ya te dije esto antes linda mía
Te voy a encontrar...
Suggest correction
Give kudos to tab author, rate the tab!
1 2 3 4 5
comments
print report bad tab
guest
You may want to rate the tab now too:
select rating
Wanna post a correction for this tab? Suggest correction