Oops, an error
Loading. Please wait.

In Decay album tab

by INDK
280 views 3 this week
no commentswrite comment
1 2 3 4 5
3 more votes to show rating
add to favorites
×
Save as Personal and add changes to this tab that will be seen only by you. Learn more ›
×
You can save this tab as Personal to edit and correct it or add notes. All changes will be seen only by you. Learn more »
launch autoscroll
font size
0
reset
how to read this tab
guitar tuner
edit
Autoscroll
slow
fast
+/-
esc
set tempo
stop
Difficulty
intermediate
In Decay 1999 Demo/EP
Tent City Records
TAB put together by EVLSK8er


Tracks:
Living with L.E.S.     by:CFH82
Rent For Sale          by:Evlsk8er
Feelin' Lucky Punk?    by:pd138
Killing Is Contagious  by:Evlsk8er



---------------------------------------------------------------------------------------
Living With L.E.S. - Indk
---------------------------------------------------------------------------------------
by:CFH82

Intro: (distorted power chords)
e|----------| |-------------------|
b|----------| |-------------------|
g|----------| |-----3-----5-------|
d|--5--7--8-| |--3--3--5--5-------|
a|--5--7--8-| |--3--1--5--3-------|
e|--3--5--6-| |--1-----3-------| X2

Verse: (light ska beats) (2 times regular, one time changed)
* *
e|5--5--6-----3--5--3----| |-5---|
b|6--5--6--10-3--6--3--5-| |-6---|
g|7--6--7--10-3--7--3--5-| |-7---|
d|---7--8--10-5-----5--5-| |-----|
a|-----------------------| |-----|
e|-------------------------------| X2 then:

Chorus:
e|---------| |------------------|
b|---------| |------------------|
g|---------| |-----3-----5------|
d|--5--7--8| |--3--3--5--5------|
a|--5--7--8| |--3--1--5--3------|
e|--3--5--6| X2 |--1-----3------| X5 (last time with palm mute)

then:
e|--------------------|
b|--------------------|
g|7--5--3-----2--3--5-|
d|7--5--3--3--2--3--5-|
a|5--3--1--3--0--1--3-| X2 Obviously, the second time through play the last
e|---------1----------| three chords at a slower pace.


Verse:
Play exactly the same all 3 times through, except on the final chord make it:
e|--|
b|6-|
g|6-|
d|6-|
a|--| instead of the half step lower. Yeah, play that and hold it until
e|--| the solo starts.

solo:
Not perfect, but it just goes over an F major scale mostly.
triplet triplet
e|-------------------------------------------------------------------|
b|-------------------------------------------------------------------|
g|-------------------------------------------------------------------|
d|-8---7---8-7---8-7---10-8-7----------7-8---8-10-8---10-12-10-------|
a|-------------8-----8--------8-10-7-------8--------8----------8-----|
e|-----------------------------------8-------------------------------|

-----------------------------------------------------------------------|
-------------------10-8------------------------------------------------|
---s/10-9-10-12-10------10-9-7---10-9-7----7---------------------------|
----------------------------------------10---10-8-7-10-8-7-------------|
-----------------------------------------------------------10-8-7---10-|
------------------------------------------------------------------8----|

----------------------------------------|
----------------------------------------|
----------------------------------------|
---(something crazy)-10-8-7-------------|
----------------------------10-8-7-10-8-|
----------------------------------------|

2nd Guitar during solo:
e|-------------|
b|-------------|
g|----3-----5--|
d|-3--3--5--5--|
a|-3--1--5--3--|
e|-1-----3-----| X2

Then chorus:
|-------------|
|-------------|
|-----3-----5-|
|--3--3--5--5-|
|--3--1--5--3-|
|--1-----3----| X5 (last time with palm mute)

then:
e|--------------------|
b|--------------------|
g|7--5--3-----2--3--5-|
d|7--5--3--3--2--3--5-|
a|5--3--1--3--0--1--3-| X2 Obviously, the second time through play the last
e|---------1----------| three chords at a slower pace.

After chorus:
e|-------------------------|
b|-------------------------|
g|-7--------------7-----5--|
d|-7--7--8--3--5--7--5--5--|
a|-5--7--8--3--5--5--5--3--|
e|----5--6--1--3-----3-----|

e|-----------------------------------------------------------------------|
b|-----------------------------------------------------------------------|
g|-7--9---10-----9---10-----9---10------10--9-------9---10------10--9----|
d|-7----------7----------8-----------3-----------5-----------0-----------|
a|-5--7---8---7--7---8---8--7---8----3--8---7----5--7---8----0--8---7----|
e|------------5----------6-----------1-----------3-----------------------|

----------------------|
----------------------|
---------5--7--9---7--|
5--7--8--5---------7--|
5--------3--5--7---5--|
3--5--6---------------|


Outro:
e|5--5--------3--5--3-----------------------------------------------------------------|
b|6--5--6--1--3--6--3--5--------------------------------------------------------------|
g|7--6--7--2--3--7--3--5--7-----------------------------------------------------------|
d|---7--8--3--5-----5--5--7--7--8--11-------------------------------------------------|
a|------------------------5--7--8--11-------------------------------------------------|
e|---------------------------5--6--9--------------------------------------------------|





-------------------------------------------------------------------------------
			    2. RENT FOR SALE - Indk
-------------------------------------------------------------------------------
By: Evlsk8er

intro:
e|----------------------|
B|----------------------|
G|----------------------|
D|--10--9--11----(4x)---|
A|--10--9--11-----------|
E|--8---6--9------------|

Verse:
e|----------------------|
B|----------------------|
G|----------------------|
D|--10--9--11----(4x)---|
A|--10--9--11-----------|
E|--8---6--9------------|

pre-chorus:
e|-------------------------|
B|-------------------------|
G|----------8--------------|
D|--10-6--8-8-------(4x)---|
A|--10-6--8-6--------------|
E|--8--4--6----------------|

chorus:
e|---------------------------|
B|---------------------------|
G|--8------------------------|
D|--8--8--10--6-------(4x)---|
A|--6--8--10--6--------------|
E|-----6--8---4--------------|

intro:
e|----------------------|
B|----------------------|
G|----------------------|
D|--10--9--11----(4x)---|
A|--10--9--11-----------|
E|--8---6--9------------|

Verse:
e|----------------------|
B|----------------------|
G|----------------------|
D|--10--9--11----(4x)---|
A|--10--9--11-----------|
E|--8---6--9------------|

pre-chorus:
e|-------------------------|
B|-------------------------|
G|----------8--------------|
D|--10-6--8-8-------(4x)---|
A|--10-6--8-6--------------|
E|--8--4--6----------------|

chorus:
e|---------------------------|
B|---------------------------|
G|--8------------------------|
D|--8--8--10--6-------(4x)---|
A|--6--8--10--6--------------|
E|-----6--8---4--------------|

chorus:
e|---------------------------|
B|---------------------------|
G|--8------------------------|
D|--8--8--10--6-------(4x)---|
A|--6--8--10--6--------------|
E|-----6--8---4--------------|

intro:
e|----------------------|
B|----------------------|
G|----------------------|
D|--10--9--11----(4x)---|
A|--10--9--11-----------|
E|--8---6--9------------|

LEAD plays at the same time:
e|8-8-8-8-8-8-8-8-8-8-8-8-8-8-8-8-8-8-----|
B|----------------------------------------|
G|----------------------------------------|
D|----------------------------------------|
A|----------------------------------------|
E|----------------------------------------|


-------------------------------------------------------------------------------------------------
Feelin' Lucky Punk? - INDK
-------------------------------------------------------------------------------------------------
by:pd138


Heavy Distortion!
Intro:
e|------------------| 
B|------------------| ----(x4)
G|------------------| 
D|-1010-777-555-333-|----------- If u dont like Using 8th fret on EString 
A|-1010-777-555-333-|            do power chord on 3rd fret on the A string
E|-8-8--555-333-111-| 

Just before verse play:
e|------------------|
B|------------------|
G|------------------|
D|-3-2--------------|
A|------------------|
E|------------------|

Verse
e|--------------------------------- 
B|--------------------------------- 
G|--------------------------------- 
D|-1010-777-555-333-1010-777-5-7-8- --------(x4)
A|-1010-777-555-333-1010-777-5-7-8-  
E|-8-8--555-333-111-8-8--555-3-5-6- 

Outro
e|--------------------------- 
B|--------------------------- 
G|--------------------------- 
D|-5-7-8--5-7-8--5-7-8-7-5-3- 
A|-5-7-8--5-7-8--5-7-8-7-5-3- 
E|-3-5-6--3-5-6--3-5-6-5-3-1- 

Easy song but fast strumming, good if u wanna learn fast strumming.
Mat



-------------------------------------------------------------------------------
			     Killing Is Contagious - INDK
-------------------------------------------------------------------------------
Tabbed by:Evlsk8er	

Tuning:Standard

INTRO
e|----------------------------------------------------------------------------------|
B|----------------------------------------------------------------------------------|
G|-444----------------444----------------888--9-9-9-9-9-9-9---888-----9-9-9-9-9-9-9-|
D|-444-6-6-6-6-6-6-6--444-6-6-6-6-6-6-6--888--9-9-9-9-9-9-9---888-----9-9-9-9-9-9-9-|
A|-222-6-6-6-6-6-6-6--222-6-6-6-6-6-6-6--666--7-7-7-7-7-7-7---666-----7-7-7-7-7-7-7-|x2
E|-----4-4-4-4-4-4-4------4-4-4-4-4-4-4---------------------------------------------|

After first time playing the first riff the lead goes... i didnt tab the strumming
e|444444444444---------------------------------------------------------------|
B|---------------------------------------------------------------------------|
G|---------------------------------------------------------------------------|
D|---------------------------------------------------------------------------|
A|---------------------------------------------------------------------------|
E|---------------------------------------------------------------------------|
VERSE
e|-----------------------------------|
B|-----------------------------------|
G|-4-4-4-4---------------------------|
D|-4-4-4-4--6-6-6-6------------------|x4
A|-2-2-2-2--6-6-6-6--2-2-2-2-2-2-2---|
E|----------4-4-4-4--0-0-0-0-0-0-0---|
Chorus
e|----------------------------------------|
B|----------------------------------------|
G|----------9-9-9-9-----------------------|
D|-6-6-6-6--9-9-9-9-9-9-9-9--4-4-4-4------|
A|-6-6-6-6--7-7-7-7-9-9-9-9--4-4-4-4------|x4
E|-4-4-4-4----------7-7-7-7--2-2-2-2------|

INTRO
e|----------------------------------------------------------------------------------|
B|----------------------------------------------------------------------------------|
G|-444----------------444----------------888--9-9-9-9-9-9-9---888-----9-9-9-9-9-9-9-|
D|-444-6-6-6-6-6-6-6--444-6-6-6-6-6-6-6--888--9-9-9-9-9-9-9---888-----9-9-9-9-9-9-9-|
A|-222-6-6-6-6-6-6-6--222-6-6-6-6-6-6-6--666--7-7-7-7-7-7-7---666-----7-7-7-7-7-7-7-|x2
E|-----4-4-4-4-4-4-4------4-4-4-4-4-4-4---------------------------------------------|

After first time playing the first riff the lead goes... 
e|444444444444---------------------------------------------------------------|
B|---------------------------------------------------------------------------|
G|---------------------------------------------------------------------------|
D|---------------------------------------------------------------------------|
A|---------------------------------------------------------------------------|
E|---------------------------------------------------------------------------|

VERSE
e|-----------------------------------|
B|-----------------------------------|
G|-4-4-4-4---------------------------|
D|-4-4-4-4--6-6-6-6------------------|x4
A|-2-2-2-2--6-6-6-6--2-2-2-2-2-2-2---|
E|----------4-4-4-4--0-0-0-0-0-0-0---|

Chorus
e|----------------------------------------|
B|----------------------------------------|
G|----------9-9-9-9-----------------------|
D|-6-6-6-6--9-9-9-9-9-9-9-9--4-4-4-4------|
A|-6-6-6-6--7-7-7-7-9-9-9-9--4-4-4-4------|x4
E|-4-4-4-4----------7-7-7-7--2-2-2-2------|

Chorus (2nd)
e|----------------------------------------------------------|
B|----------------------------------------------------------|
G|----------10-10-10-10-------------------------------------|
D|-7-7-7-7--10-10-10-10-10-10-10-10---5-5-5-5---------------|
A|-7-7-7-7--8--8--8--8--10-10-10-10---5-5-5-5---------------|x4
E|-5-5-5-5--------------8--8--8--8----3-3-3-3---------------|
OUTRO
e|---------------------------------------------------------------------------|
B|---------------------------------------------------------------------------|
G|-5-5-5---------------------------------------------------------------------|
D|-5-5-5---7-----------------------------------------------------------------|
A|-3-3-3---7-----------------------------------------------------------------|
E|---------5-----------------------------------------------------------------|


            
            
Suggest correction
Creating personal tab
Creating personal tab
You can edit any tab online and save it as your Personal.

You can edit, replace or remove any tab part or add personal notes – all changes will be seen only by you.

Personal tabs can be accessed anytime from any device, even offline.
Learn more »
Give kudos to tab author, rate the tab!
1 2 3 4 5
comments
print report bad tab
guest
Wanna post a correction for this tab? Suggest correction