Oops, an error
Loading. Please wait.

Rosas Rojas Tab

94 views 1 this week
no commentswrite comment
1 2 3 4 5
3 more votes to show rating
add to favorites
launch autoscroll
font size
0
reset
how to read this tab
guitar tuner
Autoscroll
slow
fast
+/-
esc
set tempo
stop
Help us to improve Ultimate-Guitar.com Take our survey!
×
INTRO: (se comienza con un arpegio en E)

INTRO x2
E---------------------16-14-12----------------------------
B-8/9/10--12---10-9---------------------------------------
G---------------------------------------------------------
D---------------------------------------------------------
A---------------------------------------------------------
E---------------------------------------------------------

E
No se que de mi tu pienses
                   B
No se ni donde empezar
                        A
La  amistad que hemos tenido
    Am             E
Para mi es algo mas


Dentro de mi a crecido
      E7         A
Una gran necesidad

                       E
De tenerte aqui muy cerca
                   B
De poderte acariciar

E
Cuando a veces platicamos
                       B
Quiero hablarte de mi amor
                A
Pero no logro sacar
            Am         E
Esas palabras de mi voz


Por eso quiero decirte
        E7              A
A travez de esta cancion
                        E
Lo que en verdad yo siento
           B        E  E7
Por ti en mi corazon

                       A      E/A
Y hoy con estas rosas rojas

He venido a confesarte
                    E
Que de ti me enamorado
                          B
Siento que mi pecho estalla
 A                 B
Si no te digo te amo
                    E
Que ya necesito verte


                  A          E/A
Recibe estas rosas rojas

Con ellas vengo a ofrecerte
                        E
Mi amor a cambio de nada
                         B
Si un dia llegas a quererme
 A                     B
Como yo te estoy queriendo
                      E
Sere el hombre mas feliz


Intermedio: A  E/A  E  B  A  B  E

Toma?
recibe estas rosas rojas
con ellas quiero confesarte
que estoy locamente enamorado
si enamorado de ti?


E-4-4--7-4-7-4-12-14-9 --12-12-12-12-11--9 --12-12-12-------------
B-5-5--8-5-8-5-14-14-10--14-14-14-14-12--10--14-14-14-------------
G-----------------------------------------------------------------
D-----------------------------------------------------------------
A-----------------------------------------------------------------
E-----------------------------------------------------------------

E-12-12-12-12-11-9 -9 -7-7----------------------------------------
B-14-14-14-14-12-10-10-9-9----------------------------------------
G-----------------------------------------------------------------
D-----------------------------------------------------------------
A-----------------------------------------------------------------
E-----------------------------------------------------------------

E-7-7-7-7-12-14-12-11-11--7-7-7-7-12-14-11-11--7-7-9 -7-7-5-7-5-4-
B-9-9-9-9-14-14-14-12-12--9-9-9-9-14-14-12-12--9-9-10-9-9-7-9-7-5-
G-----------------------------------------------------------------
D-----------------------------------------------------------------
A-----------------------------------------------------------------
E-----------------------------------------------------------------


Y hoy con estas rosas ?etc

ESTA CANCION LA DEDICO A LA MAS NIÑA BONITA
ANAYELI... T.Q.M. SABES KIERO STAR KONTIGO
Suggest correction
Give kudos to tab author, rate the tab!
1 2 3 4 5
comments
print report bad tab
guest
You may want to rate the tab now too:
select rating
Wanna post a correction for this tab? Suggest correction