Oops, an error
Loading. Please wait.

Serenata Huasteca Tab

56 views 1 this week
no commentswrite comment
1 2 3 4 5
3 more votes to show rating
add to favorites
launch autoscroll
font size
0
reset
how to read this tab
guitar tuner
Autoscroll
slow
fast
+/-
esc
set tempo
stop
Help us to improve Ultimate-Guitar.com Take our survey!
×
este es el requinto de teclado


armonizado en do mayor
e------8----------------------
B-----8--12-10-8-10-12-13-8-5-
G----9------------------------
D--10-------------------------
A-10--------------------------
E-----------------------------


e-12-12--10-10---8-7-5-7
B-13-13--12-12--10-8-7-8
G-----------------------
D-----------------------
A-----------------------
E-----------------------

e-7-9-7--5-8-5----7-9-7--5-8-5
B-8-8-8--7-7-7----8-8-8--7-7-7
G-----------------------------
D-----------------------------
A-----------------------------
E-----------------------------


e-7-5-3-5-3-1-0---------------
B-8-7-5-6-5-3-1---------------
G-----------------------------
D-----------------------------
A-----------------------------
E-----------------------------


que les parece perrines, 
la letra la consiguen con jodse alfredo jmenez
Suggest correction
Give kudos to tab author, rate the tab!
1 2 3 4 5
comments
print report bad tab
guest
You may want to rate the tab now too:
select rating
Wanna post a correction for this tab? Suggest correction