Oops, an error
Loading. Please wait.

Esclavos Del Tiempo Tab

5 views 1 this week
no commentswrite comment
1 2 3 4 5
3 more votes to show rating
add to favorites
launch autoscroll
font size
0
reset
how to read this tab
guitar tuner
×
Best way to learn
"Esclavos Del Tiempo"
Autoscroll
slow
fast
+/-
esc
set tempo
stop
exelente cancion!una de la mejores del no hay despues!
disfrute!


|---------------------------------------------|
|---------------------------------------------|
|---------------------------(-9-8-6-9-8-6-9-8-)
|-3-3-4-6-4-3-4-3-----------------------------|
|-4-4-4-4-4-4-4-4---4-4-4-4---6-6-6-6-6-6-6-6-|
|-------------------2-2-2-2---4-4-4-4-4-4-4-4-|
PM.............................................


|-----------------------------------------|
|--------------------------------------(x2)|
|-6-6-6-6--11-10--8--6--6-6-6-8-8-8-8-8---|
|-x-x-x-x--x--x---x--x--x-x-x-x-x-x-x-x---|
|-4-4-4-4--9--8---6--8--4-4-4-4-6-6-6-6---|
|-----------------------------------------|


hay cosas que son para siempre...
|-----------------------------------------|
|-----------------------------------------|
|-----------------------------------------|
|-6--6--4---------------------------------|
|-4--5--2--4--6---------------------------|
|----------2--4---------------------------|
PM..............

|-----------------------------------------|
|-----------------------------------------|
|-----------------------------------------|
|-6--6--4----4--6-------------------------|
|-4--5--2----4--6-------------------------|
|------------2--4-------------------------|
PM-------


si supieras que es para mi la amistad...
|---------------------------------------------|
|---------------------------------------------|
|---------------------------------------------|
|-4--6-----------------------------------------
|-4--6----------------------------------------|
|-2--4----------------------------------------|


no volverias a dudar aaaaaaaaar!!
|---------------------------------------------|
|---------------------------------------------|
|-------------------------8-8-----------------|
|-4-----6---4-4-3-3-------8-8-----------------
|-4-----6---4-4-3-3-------6-6-----------------|
|-2-----4---2-2-1-1---------------------------|

Coro: la vida se me va...
|---------------------------------------------|
|------------6--6-----------------------------|
|-6-6--4-4---5--5--2-2--4-4-------------------|
|-6-6--4-4---4--4--2-2--4-4-------------------|
|-4-4--2-2---------0-0--2-2-------------------|
|---------------------------------------------|

cuantas veces te has preguntado...
|-----------------------------------------|
|-----------------------------------------|
|-----------------------------------------|
|-6--6--4---------------------------------|
|-4--5--2--4--6---------------------------|
|----------2--4---------------------------|
PM..............

tal ves no exista solucion...
|-----------------------------------------|
|-----------------------------------------|
|------------6-6--------------------------|
|-6--6--4----4-4--------------------------|
|-4--5--2--------6-6----------------------|
|----------------4-4----------------------|
PM-------


si supieras ver dentro del corazon.
|---------------------------------------------|
|---------------------------------------------|
|---------------------------------------------|
|-4--6----------------------------------------
|-4--6----------------------------------------|
|-2--4----------------------------------------


no volverias a dudar aaaaaaaaar!!
|---------------------------------------------|
|---------------------------------------------|
|-------------------------8-8-----------------|
|-4-----6---4-4-3-3-------8-8-----------------|
|-4-----6---4-4-3-3-------6-6-----------------|
|-2-----4---2-2-1-1---------------------------|

Coro:la vida se me va
|---------------------------------------------|
|------------6--6-----------------------------|
|-6-6--4-4---5--5--2-2--4-4-------------------|
|-6-6--4-4---4--4--2-2--4-4-------------------|
|-4-4--2-2---------0-0--2-2-------------------|
|---------------------------------------------|


puente
|------------------------------------------------|
|---------------------------10-h-11-h-10-h-11-v-6|
|---------------------------------------------|
|---------------------------------------------|
|-x-x-6-6-x-x--6-6-x-x-6-6-6-6----------------|
|-x-x-5-5-x-x--5-5-x-x-4-4-4-4----------------|


fin del puente
|---------------------------------------------|
|---------------------------------------------|
|---------------------------------------------|
|------------6-6-6----------------------------|
|---6-6-6----6-6-6----------------------------|
|---4-4-4----4-4-4----------------------------|
Pm.......

Coro: la vida se me va...
|---------------------------------------------|
|------------6--6-----------------------------|
|-6-6--4-4---5--5--2-2--4-4-------------------|
|-6-6--4-4---4--4--2-2--4-4-------------------|
|-4-4--2-2---------0-0--2-2-------------------|
|---------------------------------------------|


|-----------------------------------------|
|--------------------------------------(x2)|
|-6-6-6-6--11-10--8--6--6-6-6-8-8-8-8-8---|
|-x-x-x-x--x--x---x--x--x-x-x-x-x-x-x-x---|
|-4-4-4-4--9--8---6--8--4-4-4-4-6-6-6-6---|
|-----------------------------------------|


|-----------------------------------------|
|-----------------------------------------|
|---------------------------(-9-8-6-9-8-6-9-8-)--|
|-3-3-4-6-4-3-4-3--------------------------------|
|-4-4-4-4-4-4-4-4---4-4-4-4---6-6-6-6-6-6-6-6----|
|-------------------2-2-2-2---4-4-4-4-4-4-4-4----|
PM.............................................


|---------------------------------------------|
|---------------------------------------------|
|---------------------------------------------|
|-----------------------------6---------------|
|--0-7-6-4-0---9-8-7-8-7--9-7-4---------------|
|------------7------------7-5-----------------|


|---------------------------------------------|
|---------------------------------------------|
|---6-----------------------------------------|
|---6-----------------------------------------|
|---4-----------------------------------------|
|---------------------------------------------|
Suggest correction
Give kudos to tab author, rate the tab!
1 2 3 4 5
comments
print report bad tab
guest
You may want to rate the tab now too:
select rating
Wanna post a correction for this tab? Suggest correction