Oops, an error
Loading. Please wait.

Vivo Tab

26 views 1 this week
no commentswrite comment
1 2 3 4 5
3 more votes to show rating
add to favorites
launch autoscroll
font size
0
reset
how to read this tab
guitar tuner
Autoscroll
slow
fast
+/-
esc
set tempo
stop
Help us to improve Ultimate-Guitar.com Take our survey!
×
aki les va el tema vivo...es sencillo..
en la parte con guitarra acustica se usa una nota natural
LA siguente:

A#
|--------------|
|--------------|
|-----8--------|
|-----8--------|
|-----8--------|
|-----6--------|

y el resto solo con riff!
disfute!

A#
voy a encender este momento
                     F#              G#
no estaria mal estoy deacuerdo es lo correcto
A#
es mi decision

cuando viajaba en el tiempo
                                        F#       G#
me iba dando cuenta de que todo en este mundo es etereo
A#
pero es para mi

D#-A#
tal vez me falte conciencia
D#-A#
o se apage mi mente
C                   G#
pero para mi lo mas importante es como
A#
vivir

A#
estube al lado de la suerte
                           F
pero no pretendo hablar de algo tan ilogico
      G#            A#
no se mezcla no hay necesidad

mis amigo viajan a mi lado y me siento grato acompañado
F                 G#                      A#
pero aveces no lo soporto ya me tengo que ir


D#-A#
tal vez me falte conciencia
D#-A#
o se apage mi mente
C                   G#
pero para mi lo mas importante es como
A#
vivir


|-----------------------------------------------------|
|-----------------------------------------------------|
|-8-8-7-10-10-10-12-12-10-10-8-8-7-10-10-10-5-5-3-7-7-|
|-----------------------------------------------------|
|-----------------------------------------------------|
|-----------------------------------------------------|

|--------------------------------10--11---------------|
|-----------------------------11---11--11-13-13-13----|
|--8-8-7-10-10-10-12-12-10-10-------------------------|
|-----------------------------------------------------|
|-----------------------------------------------------|
|-----------------------------------------------------|


D#-A#
tal vez me falte conciencia
D#-A#
o se apage mi mente
C                   G#
pero para mi lo mas importante es como
A#
vivir

D#       G#    A#
viviiiir vivir vivir
     D#     G#
nooh viviiir
A#
vivir
Suggest correction
Give kudos to tab author, rate the tab!
1 2 3 4 5
comments
print report bad tab
guest
You may want to rate the tab now too:
select rating
Wanna post a correction for this tab? Suggest correction