Oops, an error
Loading. Please wait.

Cuntcrusher intro tab

version 1
version 1

Intro

Interactive

4,768 views 9 this week
4 commentsread comments
1 2 3 4 5
1 last vote to show rating
add to favorites
×
Save as Personal and add changes to this tab that will be seen only by you. Learn more ›
×
You can save this tab as Personal to edit and correct it or add notes. All changes will be seen only by you. Learn more »
launch autoscroll
font size
0
reset
how to read this tab
guitar tuner
edit
Autoscroll
slow
fast
+/-
esc
set tempo
stop
-------------------------------------------------------------------------------
                             cuntcrusher - infant annihilator
-------------------------------------------------------------------------------
Tabbed by: scott parker
E-mail:scttprkr@gmail.com

Tuning: Drop A

Note: The song is in drop A for a 6 string. but in drop E on a 7 string.
i will just keep the tuning in drop D just to make it easier for me :)

e|----------------------------------------------------------------------------|
B|----------------------------------------------------------------------------|
G|----------------------------------------------------------------------------|
D|----------------------------------------------------------------------------|
A|----------------------------------------------------------------------------|
D|(12/3)--0-0-0-0-12-0-0-12-12-11-11-8-8-8-8-0-0-0-12-0-0-12-11-8-8-7-7-------|

e|----------------------------------------------------------------------------|
B|----------------------------------------------------------------------------|
G|----------------------------------------------------------------------------|
D|----------------------------------------------------------------------------|
A|----------------------------------------------------6-6-6-6-3-3-3-3---------|
D|-0-0-0-0-12-0-0-12-12-11-11-8-8-8-8-4-4-7-7-0-0-1-1-------------------------|

e|----------------------------------------------------------------------------|
B|----------------------------------------------------------------------------|
G|----------------------------------------------------------------------------|
D|----------------------------------------------------------------------------|
A|----------------------------------------------------------------------------|
D|-0-0-0-0-12-0-0-12-12-11-11-8-8-8-8-0-0-0-12-0-0-12-12-11-11-8-8-7-7--------|

e|----------------------------------------------------------------------------|
B|----------------------------------------------------------------------------|
G|----------------------------------------------------------------------------|
D|---------------------------------------------6-6-6-6-6-6----7-7-6-6-4-4-3-3-|
A|------------------------------------4-7-3-4---------------4-----------------|
D|-0-0-0-0-12-0-0-12-12-11-11-8-8-8-8-4-7-3-4---------------4-----------------|

e|---------------------------------------------------------------------------|
B|---------------------------------------------------------------------------|
G|---------1-1-1-1-4-4-------------------------------------------------------|
D|-----------------------6-6-6-6-6-6--7-7-6-6-4-4-3--------------------------|
A|-1-4-3-1-------------4-------------4--------------5-2----------------------|
D|-1-4-3-1-------------4-------------4------------------3-3-3-3-0------------|

e|---------------------------------------------------------------------------|
B|---------------------------------------------------------------------------|
G|---------------------------------------------------------------------------|
D|---7-7-7-7-7-7---7-7-6-6-4-4-3-3-------------------------------------------|
A|-4-------------4-----------------------------------------------------------|
D|-4-------------4-----------------------------------------------------------|

e|---------------------------------------------------------------------------|
B|---------------------------------------------------------------------------|
G|---------1-1-1-1-4-4-------------------------------------------------------|
D|-----------------------6-6-6-6-6-6--7-7-6-6-4-4-3--------------------------|
A|-1-4-3-1-------------4-------------4--------------5-2----------------------|
D|-1-4-3-1-------------4-------------4------------------3-3-3-3-0------------|

e|------------------------------------------|
B|------------------------------------------|
G|------------------------------------------|
D|------------------------------------------|
A|------------------------------------------|
D|-4-4-4-4-7-7-7-7-4-4-7-7-6-6-4-4-3-3-3-3--|

e|------------------------------------------|
B|------------------------------------------|
G|------------------------------------------|
D|------------------------------------------|
A|------------------------------------------|
E|--4-4-4-4-7-7-7-7-4-4-7-7-6-6-4-4-0-0-0-0-|

e|---------------------------------------------------0-0-0-0-|
B|---------------------------------------------------4-4-4-4-|
G|-----------------------------3-----------------------------|
D|-------------4---------------------------------------------|
A|-4-4-3-1-0-1-----------------------------------------------|
D|-4-4-3-1-0-1---0-1-4-3-1-0-1-----0-1-4-3-1-0-1-0-0---------|
     x x x x x * x x x x x x x *
e|-----------0----------------------------------------------------------------------|
B|-----------4/15-------------------------------------------------------------------|
G|----------------------------------------------------------------------------------|
D|----------------------------------------------------------------------------------|
A|----------------------------------------------------------------------------------|
D|-1-4-3-1-0------------------------------------------------------------------------|

| /   slide up
| \   slide down
| h   hammer-on
| p   pull-off
| ~   vibrato
| +   harmonic
| x   Mute note
| b   Bend
| pb  Pre-bend
| br  Bend release
| pbr Pre-bend release
| brb Bend release bend

************************************

please add some more stuff to it :)
thats how i play it just saying :P
sorry if its not %100
Suggest correction
Creating personal tab
Creating personal tab
You can edit any tab online and save it as your Personal.

You can edit, replace or remove any tab part or add personal notes – all changes will be seen only by you.

Personal tabs can be accessed anytime from any device, even offline.
Learn more »
Give kudos to tab author, rate the tab!
1 2 3 4 5
comments
print report bad tab
4 comments total. Showing first comments.
0 reply
KennyG216 10 Sep 29, 2014 09:31 AM

Amazing Song right here. You gotta watch the drum playthrough of this on youtube. BUt it has to be the one wher it shows his feet also. They also did a cover of Bring Me The Horizons Pray For Plagues and it makes BMTH look like Biotches!!!! Look up both of them. The playthrough is intense!

0 reply
mlp2297 118 Mar 11, 2015 08:21 AM

Great. NOW POST THE WHOLE SONG!!!!! >:(

guest
You may want to rate the tab now too:
select rating
Wanna post a correction for this tab? Suggest correction