Oops, an error
Loading. Please wait.

These Freaks Are Here bass

839 views 1 this week
1 commentread comment
1 2 3 4 5
2 more votes to show rating
add to favorites
×
Save as Personal and add changes to this tab that will be seen only by you. Learn more ›
×
You can save this tab as Personal to edit and correct it or add notes. All changes will be seen only by you. Learn more »
launch autoscroll
font size
0
reset
guitar tuner
edit
Autoscroll
slow
fast
+/-
esc
set tempo
stop
Infectious Grooves
These Freaks are Here 
from Sarsippius Ark 
Tabbed by Rodrigo G. Segura (nueayr@yahoo.com)


/ slide


G-----------------------------------------------------------------------
D-----------------------------------------------------------------------
A-------7-------------------------------2-2-2-5-5-5/7-------------------
E-0-0-0---0-0-0-0--3/5/3---0-0-0--4-4-4---------------------------------



I LIKE PRIMUS, INFECTIOUS GROOVES, RED HOT CHILI PEPPERS, AND I PLAY A SIX
STRING BASS. IF YOU KNOW OTHER INFECTIOUS GROOVES SONGS, PLEASE EMAIL ME.
Any questions, comments, email me nueayr@yahoo.com

            
            
Suggest correction
Creating personal tab
Creating personal tab
You can edit any tab online and save it as your Personal.

You can edit, replace or remove any tab part or add personal notes – all changes will be seen only by you.

Personal tabs can be accessed anytime from any device, even offline.
Learn more »
Give kudos to tab author, rate the tab!
1 2 3 4 5
comments
print report bad tab
1 comment total.
0 reply
bdouts 113 May 15, 2009 01:40 PM

solo

[------7----------6----------------5-----4------5----------------6-
[------------7----------6----5-----------------------5------7------
[--0h5---------4----------------3----0h2---0h3-----------------4---
[--------0h5--------0h4--0h3---------------------0h3----0h5--------

-------7-----5----------------6-----7-----8-----999~-]
------------------5----7-----------------------------]
--0h5----0h3--------------0h4---0h5--0h6---0h7-------]
---------------3----5--------------------------------]

guest
Wanna post a correction for this tab? Suggest correction