Oops, an error
Loading. Please wait.

Chico Antisocial Bass

5 views 1 this week
no commentswrite comment
1 2 3 4 5
3 more votes to show rating
add to favorites
launch autoscroll
font size
0
reset
guitar tuner
×
Best way to learn
"Chico Antisocial"
Autoscroll
slow
fast
+/-
esc
set tempo
stop
INTRO
ESTRIBILLO

G-----------------------------
D-----------------------------
A-555------------5------------
E-----333-55-3-5-------------- X3

G-----------------------------
D-----------------------------
A-5/77777-5/77777-------------
E-----------------------------

ESTROFA

G-----------------------------
D-----------------------------
A--5555555--------------------
E----------5555555------------ X4

G-----------------------------
D-----------------------------
A-5/77777-5/77777-------------
E----------------------------- X4

ESTRIBILLO

ESTROFA

ESTRIBILLO

PUENTE
G-------------------------------
D-------------------------------
A---5-------5-------77----------
E-------------3-55--------------

ESTRIBILLO

FINAL
G-------------------------------
D-------------------------------
A?5...--------------------------
E-------------------------------
Suggest correction
Give kudos to tab author, rate the tab!
1 2 3 4 5
comments
print report bad tab
guest
You may want to rate the tab now too:
select rating
Wanna post a correction for this tab? Suggest correction