Oops, an error
Loading. Please wait.

Cultura Bass

11 views 1 this week
no commentswrite comment
1 2 3 4 5
3 more votes to show rating
add to favorites
launch autoscroll
font size
0
reset
guitar tuner
×
Best way to learn
"Cultura"
Autoscroll
slow
fast
+/-
esc
set tempo
stop
INTRO

G-------------------------------
D-------------------------------
A-------------------------------
E-----0000000000000000----------

ESTRIBILLO

G-------------------------------
D-------------------------------
A-------------------------------
E--0-0-0-0-33333333------------- X4

ESTROFA

G-------------------------------
D-------------------------------
A-------------------------------
E--1111-2222-333333-------------X4

ESTRIBILLO

G-------------------------------
D-------------------------------
A-------------------------------
E--0-0-0-0-33333333-------------

ESTROFA

G-------------------------------
D-------------------------------
A-------------------------------
E--1111-2222-333333-------------

ESTRIBILLO

G-------------------------------
D-------------------------------
A-------------------------------
E--0-0-0-0-33333333-------------

PUENTE

G-------------------------------
D-------------------------------
A-------------------------------
E-----0000000000000000----------


ESTRIBILLO

G-------------------------------
D-------------------------------
A-------------------------------
E--0-0-0-0-33333333-------------

FINAL

G-------------------------------
D-------------------------------
A-------------------------------
E?0...--------------------------
Suggest correction
Give kudos to tab author, rate the tab!
1 2 3 4 5
comments
print report bad tab
guest
You may want to rate the tab now too:
select rating
Wanna post a correction for this tab? Suggest correction