Oops, an error
Loading. Please wait.

Lamentamos Chords

11 views 1 this week
no commentswrite comment
1 2 3 4 5
3 more votes to show rating
add to favorites
launch autoscroll
font size
0
reset
transpose
0
reset
simplify chords
display chords
guitar tuner
Autoscroll
slow
fast
+/-
esc
set tempo
stop
Help us to improve Ultimate-Guitar.com Take our survey!
×
INTRO Y ESTROFA:

                   Am
E---------------------------------------
B---------------1-----------1-----------
G---------2---------2----------2--------
D-----2------2----------2---------2-----
A--0------------------------------------
E---------------------------------------
                   C
E---------------------------------------
B-----------------1------------1--------
G---------0----------0------------0-----
D------2-----2-------------2----------2-
A--3------------------------------------
E---------------------------------------


Am
Cuando esta lloviendo
              C                           Am
Nos decimos gracias a dios que tenemos un techo

Donde protegernos
                C
Pero también lamentamos la gente que no tiene nada


E5               F5             G5-F5
Lamentamos la pobreza en el mundo
E5                        F5  (DEJA SONAR)
Y cooperemos con lo que podamos

Am
Que feo es ir por las calles
         C
Viendo a la gente muriéndose de hambre
Am
Mientras lo políticos festejan
C
En sus malditas fiestas privadas

ESTRIBILLO

ESTROFA 1

E5              F5                   G5-F5
Lamentamos la pobreza en el mundo
E5              F5                   G5 -F5
Y cooperemos con lo que podamos

OUTTRO: LA BASE ES COMO EL ESTRIBILLO PERO
SIN CORTARLO

E------------------------
B------------------------
G---9--9-10-- 9----------
D---x--x--x---x----------
A---7--7--8---7----------
E------------------------

NOTA : LA OTRA GUITARRA HACE ALGO ASI
NO ESTOY SEGURO  JEJJ ¡
Suggest correction
Give kudos to tab author, rate the tab!
1 2 3 4 5
comments
print report bad tab
guest
You may want to rate the tab now too:
select rating
Wanna post a correction for this tab? Suggest correction