Oops, an error
Loading. Please wait.

Lo Que Tengo Bass

17 views 1 this week
no commentswrite comment
1 2 3 4 5
3 more votes to show rating
add to favorites
launch autoscroll
font size
0
reset
guitar tuner
×
Best way to learn
"Lo Que Tengo"
Autoscroll
slow
fast
+/-
esc
set tempo
stop
Intro:
|--------------------------------|
|--------------------------------|
|----------------7-7-7-7-7-7-7-7-|
|5-5-5-5-5-5-5-5-----------------|
                                      x2
|--------------------------------|
|--------------------------------|
|4-4-4-5-5-5-4-4-4-5-5-5-4-4-5-5-|
|--------------------------------|


Verso:
|--------------------------------|
|--------------------------------|
|--------------------------------|
|5-5-5-5-5-5-5-5-4-4-4-4-4-4-4-4-|
                                      x4
|--------------------------------|
|--------------------------------|
|--------------------------------|
|2-2-2-2-2-2-2-2-4-4-4-4-4-4-4-4-|


Pre coro:
|----------------------|
|----------------------|
|5-5-5-4-4-4-----------|
|------------2...------|


Coro:
|--------------------------------|
|--------------------------------|
|--------------------------------|
|5-5-5-5-5-5-5-5-5-5-5-5-5-5-5-5-|
                                      x4
|--------------------------------|
|--------------------------------|
|5-5-5-5-5-5-5-5-7-7-7-7-5-5-5-5-|
|--------------------------------|


Verso x4


Coro x4


Puente:
|---------------------------------------|
|---------------------------------------|
|---------------------------------------|
|5-5-5-5-5-5-5-5-5-5-5-5-5-5-5-5-5-5-5--|


Intermedio:
|-------------------------------|
|-------------------------------|
|-------------------------------|
|5-5-5---5-5-5---5-5-5---5-5-5--|

|---------------------------------------|
|---------------------------------------|
|5-5-5-4-4-4--------5-5-5-4-4-4---------|
|------------2...---------------2...----|

|------------------------------------------------|
|------------------------------------------------|
|5-5-5-4-4-4-5-5-5-4-4-4-5-5-4-4-7-7-7-7-7-7-7-7-|
|------------------------------------------------|


Coro x4


Final:
|---------------------------------------|
|---------------------------------------|
|5-5-5-4-4-4--------5-5-5-4-4-4---------|
|------------2...---------------2...----|
Suggest correction
Give kudos to tab author, rate the tab!
1 2 3 4 5
comments
print report bad tab
guest
You may want to rate the tab now too:
select rating
Wanna post a correction for this tab? Suggest correction