Oops, an error
Loading. Please wait.

Lo Que Tengo Tab

22 views 1 this week
no commentswrite comment
1 2 3 4 5
3 more votes to show rating
add to favorites
launch autoscroll
font size
0
reset
how to read this tab
guitar tuner
×
Best way to learn
"Lo Que Tengo"
Autoscroll
slow
fast
+/-
esc
set tempo
stop
Intro:
|-----------------|
|-----------------|
|---------6-6-6---|
|7-7-7-7--6-6-6---|
|7-7-7-7--4-4-4---|
|5-5-5-5----------|

|--------------------------------------------------------------|
|--------------------------------------------------------------|
|----------------9-9-9-9-9-9-9-9-6-6-6-7-7-7-6-6-6-7-7-7-6-6-7-|
|7-7-7-7-7-7-7-7-9-9-9-9-9-9-9-9-6-6-6-7-7-7-6-6-6-7-7-7-6-6-7-|
|7-7-7-7-7-7-7-7-7-7-7-7-7-7-7-7-4-4-4-5-5-5-4-4-4-5-5-5-4-4-5-|
|5-5-5-5-5-5-5-5-----------------------------------------------|


Verso:
|---------------------|
|---------------------|
|---------------------|
|7....----------------|
|7....----------------|
|5....----------------|

|--------------------------------|
|--------------------------------|
|--------------------------------|
|--------------------------------|
|--------------------------------|
|5-5-5-5-4-4-4-4-2-2-2-2-4-4-4-4-|


Pre coro:
|-----------------|
|-----------------|
|7-7-7-6-6-6------|
|7-7-7-6-6-6-4..--|
|5-5-5-4-4-4-4..--|
|------------2..--|


Coro:
|--------------------------------|
|--------------------------------|
|--------------------------------|
|7---7-7-7-7-7-7-7-7-7-7-7-7-7-7-|
|7---7-7-7-7-7-7-7-7-7-7-7-7-7-7-|
|5---5-5-5-5-5-5-5-5-5-5-5-5-5-5-|

|--------------------------------|
|--------------------------------|
|7---7-7-7-7-7-7-9-9-9-9-7-7-7-7-|
|7---7-7-7-7-7-7-9-9-9-9-7-7-7-7-|
|5---5-5-5-5-5-5-7-7-7-7-5-5-5-5-|
|--------------------------------|


Verso


Coro


Intermedio:
|-------------------------------|
|-------------------------------|
|-------------------------------|
|7-7-7---7-7-7---7-7-7---7-7-7--|
|7-7-7---7-7-7---7-7-7---7-7-7--|
|5-5-5---5-5-5---5-5-5---5-5-5--|

|-------------------------------------|
|-------------------------------------|
|7-7-7-6-6-6--------7-7-7-6-6-6-------|
|7-7-7-6-6-6-4...---7-7-7-6-6-6-4...--|
|5-5-5-4-4-4-4...---5-5-5-4-4-4-4...--|
|------------2...---------------2...--|

|------------------------------------------------|
|------------------------------------------------|
|7-7-7-6-6-6-7-7-7-6-6-6-7-7-6-6-9-9-9-9-9-9-9-9-|
|7-7-7-6-6-6-7-7-7-6-6-6-7-7-6-6-9-9-9-9-9-9-9-9-|
|5-5-5-4-4-4-5-5-5-4-4-4-5-5-4-4-7-7-7-7-7-7-7-7-|
|------------------------------------------------|


Coro


Final:
|-------------------------------------|
|-------------------------------------|
|7-7-7-6-6-6--------7-7-7-6-6-6-------|
|7-7-7-6-6-6-4...---7-7-7-6-6-6-4...--|
|5-5-5-4-4-4-4...---5-5-5-4-4-4-4...--|
|------------2...---------------2...--|
Suggest correction
Give kudos to tab author, rate the tab!
1 2 3 4 5
comments
print report bad tab
guest
You may want to rate the tab now too:
select rating
Wanna post a correction for this tab? Suggest correction