Oops, an error
Loading. Please wait.

Paren De Matar Chords

6 views 1 this week
no commentswrite comment
1 2 3 4 5
3 more votes to show rating
add to favorites
launch autoscroll
font size
0
reset
transpose
0
reset
simplify chords
display chords
guitar tuner
Autoscroll
slow
fast
+/-
esc
set tempo
stop
Help us to improve Ultimate-Guitar.com Take our survey!
×
INTRO:

E------------------------------
B------------------------------
G---9--------------------------
D---x--------------------------
A---7--------------------------
E------------------------------
E5 - G5 -  A5 (X4)

ESTRIBILLO
E------------------------------
B------------------------------
G------------------99----------
D---22222-22222----xx----------
A---22222-22222----77----------
E---00000 00000----------------
Paren de matar
Dejen de matar

ESTROFA
E5     A5   G5
Basta de secuestros
E5     A5   G5
Express y de robos
E5     A5   G5
Por que el pueblo
E5     A5   G5
No da mas

E5     A5   G5
Basta de secuestros
E5     A5   G5
Express y de robos
E5     A5   G5
Por que el pueblo
E5     A5   G5
No da mas

PUENTE:
E---------------------------------------
B---------------------------------------
G----12121212-11111111--10101010--------
D-----x-x-x-x--x-x-x-x---x-x-x-x--------
A----10101010--9-9-9-9---8-8-8-8--------
E---------------------------------------
Paren, de, matar,
A personas inocentes

ESTRIBILLO

ESTROFA:
es injusto que
gente inocente
muera asesinada
por hijos de putas

es injusto que
gente inocente
muera asesinada
por hijos de putas

PUENTE

ESTRIBILLO

PUENTE 2: E5 A5 G5

ESTRIBILLO

FIN
Suggest correction
Give kudos to tab author, rate the tab!
1 2 3 4 5
comments
print report bad tab
guest
You may want to rate the tab now too:
select rating
Wanna post a correction for this tab? Suggest correction