Oops, an error
Loading. Please wait.

Recuerdos De Mi Vida Tab

22 views 1 this week
no commentswrite comment
1 2 3 4 5
3 more votes to show rating
add to favorites
launch autoscroll
font size
0
reset
how to read this tab
guitar tuner
×
Best way to learn
"Recuerdos De Mi Vida"
Autoscroll
slow
fast
+/-
esc
set tempo
stop
RECUERDOS DE MI VIDA

INTRO:
NOTA: Deja Sonar
E---------------------------------------
B---------------------------------------
G---------------------------------------
D--5------------------------------------
A--5------------------------------------
E--3------------------------------------

INTRO: PARTE 1

E-------------------------------------------
B-------------------------------------------
G-------------------------------------------
D-------------------------------------------
A--2---3---2---3-33332----------------------
E----3-------3------------------------------

INTRO PARTE 2

E------------------------------------------
B------------------------------------------
G------4---5--4--5-55554-------------------
D--------5------5--------------------------
A---------------------------///////////////
E---------------------------///////////////


G5     A5   C5         D5
Ya lo se, es amor infiel
G5      A5          C5         D5
Juntos los dos, son solo un fracaso
G5          A5     C5         D5
Sus recuerdos, hoy los finge el viento
G5          A5       C5         D5
En las tinieblas, se ocultan sus respuestas

PRE ESTRIBILLO: (... Y eso esta bien...)

GUITARRA 1: COn un efecto
E---------------------------------------
B---------------------------------------
G---------------------------------------
D--5------------------------------------
A--x------------------------------------
E--3------------------------------------

GUITARRA 2: Limpia
E---------------------------------------
B---------------------------------------
G------12--------12---------------------
D----------12--------12-----------------
A--10-----------------------------------
E---------------------------------------

G (deja sonar )
Y eso esta bien?

Eso esta mal?
G (deja sonar )
Ocultar es dejar?

Engañar es amar?

G5                   D5
Nunca estaban bien, siempre estaban mal
C5                 D5
Estaban como no debían de estar!
G5                  D5
No puedo olvidar el drama familiar
C5 ( pm)            G5
Recuerdos de mi vida
INTRO


NOTA: Las primeras 2 vueltas d esta estrofa no llevan DISTORSION ¡ ;D


E---------------------------------------
B---------------------------------------
G----------------55555--77777-----------
D--55555--77777--xxxxx--xxxxx-----------
A--xxxxx--xxxxx--33333--55555-----------
E--33333--55555-------------------------


G5      A5   C5            D5
Al quererse, lastimaron gente
G5       A5   C5             D5
Y creyeron, que era incoherente
G5         A5  C5            D5
Nos obviaron, todo lo ocultaron
G5           A5    C5             D5
Con sus papeles, nos tienen cansados

PRE ESTRIBILLO

Estribillo X1

Puente : G5 Fsus5 E5 Fsus5 X4


(En las ultimas 2 vueltas se escuchan
las mismas notas una octava arriba con un efecto de wah ¡ creo :D )

ESTRIBILLO X1

PARTE FINAL : G5 - D5 - C5 - D5 X2 (Recuerdos de mi vida)

E---------------------------------------
B---------------------------------------
G----------------55555--77777-----------
D--55555--77777--xxxxx--xxxxx-----------
A--xxxxx--xxxxx--33333--55555-----------
E--33333--55555-------------------------

G5            A5
Quiero llevar el recuerdo
C5                D5
De lo que fue mi vida
G5          A5
Verlos siempre en mis sueños
C5           D5
Como una familia unida

Fin: G5

Dedicada para el salame que copio mi tab.
Encima dice que lo corrige y lo hizo mierda
SORDO *** JEJJ
Suggest correction
Give kudos to tab author, rate the tab!
1 2 3 4 5
comments
print report bad tab
guest
You may want to rate the tab now too:
select rating
Wanna post a correction for this tab? Suggest correction