Oops, an error
Loading. Please wait.

Solucionando Problemas Tab

50 views 1 this week
no commentswrite comment
1 2 3 4 5
3 more votes to show rating
add to favorites
launch autoscroll
font size
0
reset
how to read this tab
guitar tuner
×
Best way to learn
"Solucionando Problemas"
Autoscroll
slow
fast
+/-
esc
set tempo
stop
Solucionando problemas- infierno 18

Intro: LA5 FA#5 RE5

Hoy siento como todo se derrumba
Y no encontramos la respuesta esta vez
Hoy te pido que no me dejes solo
Y despierto en un sueño que se cae?

FA#5                   RE5
Basta! Todo el peso en una sola parte
FA#5            RE5
Basta! Necesito relajarme, comenzar

Estribillo:

LA5
Solucionando problemas
MI5
Dame alguna respuesta

 e-------------------------------------------
 b-------------------------------------------
 g-------------------------------------------
 d-11-11-11-11-11-11-11-11-11----------------
 a-9--9--9--9--9--9--9--9--9-----------------
 e-------------------------------------------
No caigo en tu juego
RE5
No juegues conmigo! (x2)

Me alejo de lo que me hace mal
Prefiero evitar todo ese malestar,
Elijo ser feliz de alguna otra manera
Mirando el lado bueno en cada oportunidad?

FA#5                   RE5
Basta! Todo el peso en una sola parte
FA#5            RE5
Basta! Necesito relajarme, comenzar?

LA5
Solucionando problemas
MI5
Dame alguna respuesta

 e-------------------------------------------
 b-------------------------------------------
 g-------------------------------------------
 d-11-11-11-11-11-11-11-11-11----------------
 a-9--9--9--9--9--9--9--9--9-----------------
 e-------------------------------------------
No caigo en tu juego
RE5
No juegues conmigo! (x2)


Solucionando problemas
Dame alguna respuesta
No caigo en tu juego
No juegues conmigo?.


MI5
 e--------
 b--------
 g-9------
 d-9------
 a-7------
 e--------
Suggest correction
Give kudos to tab author, rate the tab!
1 2 3 4 5
comments
print report bad tab
guest
You may want to rate the tab now too:
select rating
Wanna post a correction for this tab? Suggest correction