Oops, an error
Loading. Please wait.

Una Historia Normal Chords

version 1
version 1

Whole song

13 views 1 this week
no commentswrite comment
1 2 3 4 5
3 more votes to show rating
add to favorites
launch autoscroll
font size
0
reset
transpose
0
reset
simplify chords
display chords
guitar tuner
Autoscroll
slow
fast
+/-
esc
set tempo
stop
Strumming
There is no strumming pattern for this song yet. and get +5 IQ
intro:x4
-----------6----6-5-------------------------1
-6-6---88----88-----------------------------2
--------------------------------------------3
--------------------------------------------4
--------------------------------------------5
--------------------------------------------6


Verso:C5

--------------------------------------------1
--------------------------------------------2
-5------------------------------------------3
-5------------------------------------------4
-3--3322110---------------------------------5
--------------------------------------------6
Él en un lugar espera
Impacientemente la fiesta
Pensando que todo va a ir bien
Pero así no va a ser

Intro:x4
Verso

Las chicas lo invitan a bailar
Esa mierda de cumbia
Ellas no entienden nada
De lo que a el le gusta


Estribillo:C5-D5-E5-D5

-----------------------------------------1
-----------------------------------------2
-55---77--999--777-----------------------3
-55---77--999--777-----------------------4
-33---55--777--555-----------------------5
-----------------------------------------6
C5     D5
Vamos todos
E5           D5
No pierdan el tiempo
C5         D5
No sigan la moda
E5            D5
Por que tienen esa onda

iNTRO:X4

Verso

El no usa estúpidos peinados
Ni tampoco se viste con tapados
A el le gusta el punk rock
Pero no le gusta el cuarteto

Las chicas lo invitan a bailar
Esa mierda de cumbia
Ellas no entienden nada
De lo que a el le gusta

ESTRIBILLO

C5     D5
vamos todos
E5              D5
no pierdan el tiempo
C5         D5
no sigan la moda
E5              D5
por que tienen esa onda

C5     D5
vamos todos
E5              D5
no pierdan el tiempo
C5         D5
no sigan la moda
E5              D5
por que tienen esa onda
Suggest correction
Give kudos to tab author, rate the tab!
1 2 3 4 5
comments
print report bad tab
guest
Wanna post a correction for this tab? Suggest correction