Oops, an error
Loading. Please wait.

Victimas Adolescentes Bass Tab

11 views 1 this week
no commentswrite comment
1 2 3 4 5
3 more votes to show rating
add to favorites
launch autoscroll
font size
0
reset
guitar tuner
Autoscroll
slow
fast
+/-
esc
set tempo
stop
Help us to improve Ultimate-Guitar.com Take our survey!
×
Intro:
G|-----------------------------------------------
D|-----------------------------------------------
A|--------3-2-0----3-2-0------3-2-0------3-2-0---
E|-333333-------3-333----3-333------3-333--------

G|-----------------------------------------------
D|-----------------------------------------------
A|--------3-2-0----3-2-0------3-2-0------3-2-0---
E|-333333-------3-333----3-333------3-333------3~

Verso
G|---------------------
D|---------------------x2
A|-----------33333333--
E|--3333333------------

G|-------------------------------------------
D|-------------------------------------------
A|------------3333333333---------------------
E|--55555555-------------333333333333333-----

G|---------------------
D|---------------------x2
A|-----------33333333--
E|--3333333------------
G|-------------------------------------------
D|-------------------------------------------
A|------------3333333333---------------------
E|--55555555-------------333333333333333-----

Pre coro
(Sigo preguntando dónde estar)
G|----------------------------------------
D|----------------------------------------
A|--55555555-------333333-----------------
E|------------------------33333333/222/333
  Sigo respirando bajo
G|------------------   G|----------------------
D|------------------   D|----------------------
A|--5555---3333-----x2 A|--5555-3333--5555555555
E|------------------   E|-----------------------


Coro(Me quiero soltar....)
G|------------------------
D|------------------------x4
A|-------------333333-33--
E|---333333-33------------

Enfrentate nunca es tarde
A|---------3~
E|--5~-------

Intro:
G|-----------------------------------------------
D|-----------------------------------------------
A|--------3-2-0----3-2-0------3-2-0------3-2-0---x2
E|-333333-------3-333----3-333------3-333--------

Verso
G|---------------------
D|---------------------x2
A|-----------33333333--
E|--3333333------------

G|-------------------------------------------
D|-------------------------------------------
A|------------3333333333---------------------
E|--55555555-------------333333333333333-----

G|---------------------
D|---------------------x2
A|-----------33333333--
E|--3333333------------
G|-------------------------------------------
D|-------------------------------------------
A|------------3333333333---------------------
E|--55555555-------------333333333333333-----

Pre coro
(Sigo preguntando dónde estar)
G|----------------------------------------
D|----------------------------------------
A|--55555555-------333333-----------------
E|------------------------33333333/222/333
  Sigo respirando bajo
G|------------------   G|----------------------
D|------------------   D|----------------------
A|--5555---3333-----x2 A|--5555-3333--5555555555
E|------------------   E|-----------------------
En la parte del solo va esto
G|------------------------
D|------------------------x6
A|-------------333333-33--
E|---333333-33------------

G|---------------------------------
D|----------------------------------
A|-------------333333-33-5555555555-
E|---333333-33----------------------

Ultimo coro
(Me quiero soltar....)
G|------------------------
D|------------------------x4
A|-------------333333-33--
E|---333333-33------------


Enfrentarse no es cobarde
A|-------------3333333333
E|--55555555555----------

Parte final
G|-----------------------------------------------
D|-----------------------------------------------
A|--------3-2-0----3-2-0------3-2-0------3-2-0--- x2
E|-333333-------3-333----3-333------3-333--------

G|-----------------------------------------------
D|-----------------------------------------------
A|--------3-2-0----3-2-0------3-2-0------3-2-0---
E|-333333-------3-333----3-333------3-333------1~

escuchen la cancion asi es mas facil notar los cambios
si tienen alguna duda mi correo es Punksong44@
LaLoninguno
Suggest correction
Give kudos to tab author, rate the tab!
1 2 3 4 5
comments
print report bad tab
guest
You may want to rate the tab now too:
select rating
Wanna post a correction for this tab? Suggest correction