Oops, an error
Loading. Please wait.

Victimas Adolescentes Tab

11 views 1 this week
no commentswrite comment
1 2 3 4 5
3 more votes to show rating
add to favorites
launch autoscroll
font size
0
reset
how to read this tab
guitar tuner
Autoscroll
slow
fast
+/-
esc
set tempo
stop
Help us to improve Ultimate-Guitar.com Take our survey!
×
INTRO:

RIFF 1:
e|------------------------------------------------------
B|------------------------------------------------------
G|----------------5-4-2----------5-4-2----------5-4-2---    X2
D|----5-5-5-5-5-5-5-4-2-5--5-5-5-5-4-2-5--5-5-5-5-4-2-5-
A|----5-5-5-5-5-5-3-2-0-5--5-5-5-3-2-0-5--5-5-5-3-2-0-5-
E|----3-3-3-3-3-3-------3--3-3-3-------3--3-3-3-------3-


G5           C5
Desperté sin comprender
G5       C5
Otro día es perder
A5            C5       G5
Con el tiempo lo vas a saber
G5           C5
Días tristes sin final
G5          C5
Sin refugio escapas
A5                 C5        G5
Consecuencia de un ser irracional
D5         C5           G5     F#5-G5
Sigo preguntando dónde estar
D5        C5            G5     F#5-G5
Sigo lastimando a los demás
D5        C5
Sigo respirando bajo
D5         C5
Atrapado entre mis brazos
D5         C5            D5
Suplicando ya no aguanto más


ESTRIBILLO:
e|-----------------------------
B|-----------------------------
G|-----------------------------
D|-------------------------5---
A|-------------2-0---------5---
E|----0--3--0--------3--0--3---
                           G5       C5
                 Me quiero soltar
                           G5       C5
                 Lo voy a intentar
                            G5            C5
                 Quiero ser libre de este mal
                           G5        C5
                 Para comenzar
                 A5         C5
                 Enfrentate nunca es tarde

RIFF 1

G5         C5
No soporto la ansiedad
G5             C5
me equivoco al esperar
A5            C5        G5
esperanza y deseos sin lugar
G5         C5
Me negaron libertad
G5            C5
me internaron sin pensar
A5          C5         G5
Te llamaron enfermo mental

D5         C5          G5     F#5-G5
Sigo preguntando dónde estar
D5         C5          G5     F#5-G5
Sigo lastimando a los demás
D5        C5
Sigo respirando bajo
D5          C5
atrapado entre mis brazos
D5          C5           D5
Suplicando ya no aguanto más


SOLO:

e|-----------------------------------------------------
B|-----------------------------------------------------
G|-----------------------------------------------------
D|-----------------------------------------------0-2-0-
A|-------------2-0---------------0--2--0--3-3-3--------
E|----0--3--0--------3--0--3--3------------------------


e|----------------------------------
B|----------------------------------
G|----------------------------------
D|------------------------0-2-0-----     X2
A|--------0--2--0--3-3-3------------
E|--3--3----------------------------


e|-----------------------------------------------------
B|-----------------------------------------------------
G|--------------------------------------5-9-9-9-9-7-5--
D|------------------------0-2-5-5-5-5-7----------------
A|--------0--2--0--3-3-3-------------------------------
E|--3--3-----------------------------------------------


e|----------------------------
B|----------------------------
G|----------------------------
D|--5--5--5-7-9-10-9-7-5------
A|----------------------------
E|----------------------------


e|--------------------------5--5-5-5-5-5-----
B|--------------------------7--5-5-5-5-5-----
G|------------5-9-9-9-9-7-5-7--7-7-7-7-7-----
D|--5--5--5-7--------------------------------
A|-------------------------------------------
E|-------------------------------------------


BATERIA SOLO:

Me quiero soltar
Lo voy a intentar
Quiero ser libre de este mal
Para comenzar
Voy a intentar
Lo voy a lograr
Quiero ser libre una vez mas
Para disfrutar


             G5          C5
Me quiero soltar
              G5         C5
Lo voy a intentar
           G5            C5
Quiero ser libre de este mal
          G5             C5
Para comenzar
              G5         C5
Lo voy a intentar
             G5          C5
Y lo voy a lograr
           G5            C5
Quiero ser libre una vez mas
           G5            C5
Para disfrutar

A5
Enfrentarse no es cobarde
C5
No te rindas es tu dia

RIFF 1:
e|------------------------------------------------------
B|------------------------------------------------------
G|----------------5-4-2----------5-4-2----------5-4-2---        X2
D|----5-5-5-5-5-5-5-4-2-5--5-5-5-5-4-2-5--5-5-5-5-4-2-5-
A|----5-5-5-5-5-5-3-2-0-5--5-5-5-3-2-0-5--5-5-5-3-2-0-5-
E|----3-3-3-3-3-3-------3--3-3-3-------3--3-3-3-------3-

RIFF 1:
e|------------------------------------------------------
B|------------------------------------------------------
G|----------------5-4-2----------5-4-2----------5-4-2---        x1
D|----5-5-5-5-5-5-5-4-2-5--5-5-5-5-4-2-5--5-5-5-5-4-2-3-
A|----5-5-5-5-5-5-3-2-0-5--5-5-5-3-2-0-5--5-5-5-3-2-0-3-
E|----3-3-3-3-3-3-------3--3-3-3-------3--3-3-3-------1-
Suggest correction
Give kudos to tab author, rate the tab!
1 2 3 4 5
comments
print report bad tab
guest
You may want to rate the tab now too:
select rating
Wanna post a correction for this tab? Suggest correction