Oops, an error
Loading. Please wait.

Si No Hay Sentimiento Bass Tab

6 views 1 this week
no commentswrite comment
1 2 3 4 5
3 more votes to show rating
add to favorites
launch autoscroll
font size
0
reset
guitar tuner
×
Best way to learn
"Si No Hay Sentimiento"
Autoscroll
slow
fast
+/-
esc
set tempo
stop
INTRO:

||----------------------||
||----------------------||
||--5-----------2-------||
||-----5--2--3-----5--3-||

VERSO:

  Pronto solos en este lugar...
||---------------------------
||---------------------------   *Todo el verso igual, se repite dos veces.
||---------------------------
||--5---3---2---3------------

BRIDGE:

  Y ya no siento aquel vacio...
||---------------------------
||---------------------------  */  Slide de ida y de regreso.
||--2-------3----------------
||------3-----------0/ -----

  Que me obligaba...
||---------------------------
||---------------------------
||---------------------------
||--0---2---3---5------------

CORO:

  Tu pulso aumenta...
||----------------------------
||----------------------------  *Igual que el intro.
||--5---------------2-------3-
||------5---2---3-------5-----
                ^
            4ta. nota

*Despues del coro lo mismo hasta la curta nota.


VERSO: Se ahoga mi mente q pasaria...

BRIDGE:  Y ya no siento aquel vacio... Que me obligaba...

CORO: Tu pulso aumenta...

      Noche salvaje...

SOLO:
               |*Igual q la   |*Igual que le intro
               | segunda parte| y el coro.
               | del bridge.  |
               |              |
||-------------|--------------|----------------------
||-------------|--------------|----------------------
||--2----------|--------------|--5-----------2-----3-
||------3-/ --|--0--2--3--5--|-----5--2--3-----5----


DESPUES DEL SOLO:

BRIDGE:

  Y ya no siento aquel vacio...  ***
||---------------------------    *
||---------------------------    *      *Las mismas posiciones
||--4-------5----------------    *       de los dedos que en el
||------5--------------------    *       bridge y el coro, solo
                                 *       que 2 trastes (posiciones)
  Que me obligaba...             *       abajo.
||---------------------------    *
||---------------------------    *
||---------------------------    *
||--2---4---5---7------------    *
                                 *
                                 *      *De Si a Do#.
CORO:                            *
                                 *
  Tu pulso aumenta...            *
||----------------------------   *
||----------------------------   *
||--7---------------4-------5-   *
||------7---4---5-------7-----   ***
Suggest correction
Give kudos to tab author, rate the tab!
1 2 3 4 5
comments
print report bad tab
guest
You may want to rate the tab now too:
select rating
Wanna post a correction for this tab? Suggest correction