Oops, an error
Loading. Please wait.

The Divine Right Of Kings tab

version 1
version 1

Whole song

Interactive

97 views 12 this week
no commentswrite comment
1 2 3 4 5
3 more votes to show rating
add to favorites
×
Save as Personal and add changes to this tab that will be seen only by you. Learn more ›
×
You can save this tab as Personal to edit and correct it or add notes. All changes will be seen only by you. Learn more »
launch autoscroll
font size
0
reset
how to read this tab
guitar tuner
edit
Autoscroll
slow
fast
+/-
esc
set tempo
stop
                                   The Divine Right of Kings                                       

Ingested
Guitar 1



      0:00                                                                       
      PM   PM PM        PM PM    PM                                              
      E    E  Q    Q    E  E     Q    H.              H.           Q             
B ||--------------------------|--------------------|--------------------|-------|
F#||--------------------------|--------------------|--------------------|-------|
D ||--------------------------|--------------------|--------------------|-------|
A ||--------------------------|--------------------|--------------------|-------|
E ||--4----5--4----4----4--5--|--0-----------------|---------------7----|-------|
A ||--5----6--5----5----5--6--|--0-----------------|---------------8----|-------|


               PM PM    PM                                                PM   PM   PM         
  H.           E  E     Q    H.              H.           Q               Q    Q    Q    Q     
---------------------|--------------------|--------------------|-------|----------------------|
---------------------|--------------------|--------------------|-------|----------------------|
---------------------|--------------------|--------------------|-------|----------------------|
---------------------|--------------------|--------------------|-------|----------------------|
---------------7--7--|--4-----------------|---------------7----|-------|--4----5----4---------|
---------------8--8--|--5-----------------|---------------8----|-------|--5----6----5---------|


  0:10                                                                                       
  PM   PM   PM   PM      PM   PM   PM           PM   PM   PM   PM      PM   PM   PM   PM PM  
  Q    Q    Q    Q       Q    Q    Q    Q       Q    Q    Q    Q       Q    Q    Q    E  E   
----------------------|----------------------|----------------------|-----------------------|
----------------------|----------------------|----------------------|-----------------------|
----------------------|----------------------|----------------------|-----------------------|
----------------------|----------------------|----------------------|-----------------------|
--4----5----4----3----|--4----5----4----7----|--4----5----4----3----|--4----5----4----7--7--|
--5----6----5----4----|--5----6----5----8----|--5----6----5----4----|--5----6----5----8--8--|


  PM   PM   PM   PM      PM   PM   PM           PM   PM   PM   PM      PM   PM   PM   PM PM  
  Q    Q    Q    Q       Q    Q    Q    Q       Q    Q    Q    Q       Q    Q    Q    E  E   
----------------------|----------------------|----------------------|-----------------------|
----------------------|----------------------|----------------------|-----------------------|
----------------------|----------------------|----------------------|-----------------------|
----------------------|----------------------|----------------------|-----------------------|
--4----5----4----3----|--4----5----4----7----|--4----5----4----3----|--4----5----4----7--7--|
--5----6----5----4----|--5----6----5----8----|--5----6----5----4----|--5----6----5----8--8--|


  PM   PM   PM   PM      PM   PM   PM           PM   PM   PM   PM      PM   PM   PM   PM PM  
  Q    Q    Q    Q       Q    Q    Q    Q       Q    Q    Q    Q       Q    Q    Q    E  E   
----------------------|----------------------|----------------------|-----------------------|
----------------------|----------------------|----------------------|-----------------------|
----------------------|----------------------|----------------------|-----------------------|
----------------------|----------------------|----------------------|-----------------------|
--4----5----4----3----|--4----5----4----7----|--4----5----4----3----|--4----5----4----7--7--|
--5----6----5----4----|--5----6----5----8----|--5----6----5----4----|--5----6----5----8--8--|


  PM   PM   PM   PM      PM   PM   PM           PM   PM   PM   PM      PM   PM   PM   PM PM  
  Q    Q    Q    Q       Q    Q    Q    Q       Q    Q    Q    Q       Q    Q    Q    E  E   
----------------------|----------------------|----------------------|-----------------------|
----------------------|----------------------|----------------------|-----------------------|
----------------------|----------------------|----------------------|-----------------------|
----------------------|----------------------|----------------------|-----------------------|
--4----5----4----3----|--4----5----4----7----|--4----5----4----3----|--4----5----4----7--7--|
--5----6----5----4----|--5----6----5----8----|--5----6----5----4----|--5----6----5----8--8--|


  0:28                                                                                       
  PM   PM   PM   PM      PM   PM   PM           PM   PM   PM   PM      PM   PM   PM   PM PM  
  Q    Q    Q    Q       Q    Q    Q    Q       Q    Q    Q    Q       Q    Q    Q    E  E   
----------------------|----------------------|----------------------|-----------------------|
----------------------|----------------------|----------------------|-----------------------|
----------------------|----------------------|----------------------|-----------------------|
----------------------|----------------------|----------------------|-----------------------|
--4----5----4----3----|--4----5----4---------|--4----5----4----3----|--4----5----4----7--7--|
--5----6----5----4----|--5----6----5---------|--5----6----5----4----|--5----6----5----8--8--|


  PM   PM   PM   PM      PM   PM   PM           PM   PM   PM   PM      PM   PM   PM   PM PM  
  Q    Q    Q    Q       Q    Q    Q    Q       Q    Q    Q    Q       Q    Q    Q    E  E   
----------------------|----------------------|----------------------|-----------------------|
----------------------|----------------------|----------------------|-----------------------|
----------------------|----------------------|----------------------|-----------------------|
----------------------|----------------------|----------------------|-----------------------|
--4----5----4----3----|--4----5----4---------|--4----5----4----3----|--4----5----4----7--7--|
--5----6----5----4----|--5----6----5---------|--5----6----5----4----|--5----6----5----8--8--|


  0:38                                                                               
  PM   PM  PM   PMPM  PM   PM PM PM PM PM    PM PM  PM   PMPM  PM   PM PM PM         
  S    S   S S  S S   S  S S  S  E  E  E     S  S   S S  S S   S  S S  S  E  E   E   
------------------------------------------|-----------------------------------------|
------------------------------------------|-----------------------------------------|
------------------------------------------|----------------------------------8s--5--|
-------------7----------10----------------|-----------7----------10-----------------|
---------------------------7--7--7--6--5--|-------------------------7--7--7--6s--3--|
--0----7--10---10-7--10----7--7--7--6--5--|--0--7--10---10-7--10----7--7--7---------|


  PM PM  PM   PMPM  PM   PM PM PM PM PM    PM  PM PM    PM PM PM    PM PM PM PM PM PM  
                                                                    |--3--|  |--3--|   
  S  S   S S  S S   S  S S  S  E  E  E     S   S  S  S  S  S  S  S  E  E  E  E  E  E   
----------------------------------------|---------------------------------------------|
----------------------------------------|---------------------------------------------|
----------------------------------------|---------------------------------------------|
-----------7----------10----------------|-----------10----------13--------------------|
-------------------------7--7--7--6--5--|--------------------------10--9--7--9--7--6--|
--0--7--10---10-7--10----7--7--7--6--5--|--0--10-13----13-10-13----10--9--7--9--7--6--|


  PM PM  PM   PMPM  PM   PM PM PM PM PM    PM PM  PM   PMPM  PM   PM PM PM         
  S  S   S S  S S   S  S S  S  E  E  E     S  S   S S  S S   S  S S  S  E  E   E   
----------------------------------------|-----------------------------------------|
----------------------------------------|-----------------------------------------|
----------------------------------------|----------------------------------8s--5--|
-----------7----------10----------------|-----------7----------10-----------------|
-------------------------7--7--7--6--5--|-------------------------7--7--7--6s--3--|
--0--7--10---10-7--10----7--7--7--6--5--|--0--7--10---10-7--10----7--7--7---------|


  PM PM  PM   PMPM  PM   PM PM PM PM PM    PM  PM PM    PM PM PM    PM PM PM PM PM PM  
                                                                    |--3--|  |--3--|   
  S  S   S S  S S   S  S S  S  E  E  E     S   S  S  S  S  S  S  S  E  E  E  E  E  E   
----------------------------------------|---------------------------------------------|
----------------------------------------|---------------------------------------------|
----------------------------------------|---------------------------------------------|
-----------7----------10----------------|-----------10----------13--------------------|
-------------------------7--7--7--6--5--|--------------------------10--9--7--9--7--6--|
--0--7--10---10-7--10----7--7--7--6--5--|--0--10-13----13-10-13----10--9--7--9--7--6--|


                              0:54                             
  PM PM       PM PM           PM   PM       PM PM       PM PM  
                                      |-3-|       |-3-|        
  E  E    E   E  E  Q.        E    E  S S S E  E  S S S E  E   
---------------------------|----------------------------------|
---------------------------|----------------------------------|
--------<>4b---------------|----------------------------------|
---------------------------|----------7-7-7-------7-7-7-------|
--6--5--------4--3---------|--5----4--------5--4--------5--4--|
--7--6--------5--4---------|--5----4--------5--4--------5--4--|


        PM PM                                  PM PM       PM PM       PM PM  
  |-3-|       |-3-| |-3-| |-3-| |-3-| |-3-|          |-3-|       |-3-|        
  S S S E  E  S S S S S S S S S S S S S S S    E  E  S S S E  E  S S S E  E   
--------------------------------------------|--------------------------------|
--------------------------------------------|--------------------------------|
--------------------------------------------|--------------------------------|
--6-6-6-------4-4-4-3-3-3-6-6-6-7-7-7-6-6-6-|--------7-7-7-------6-6-6-------|
--------5--4--------------------------------|--7--6--------7--6--------7--6--|
--------5--4--------------------------------|--7--6--------7--6--------7--6--|


           PM PM          PM PM                PM PM       PM PM       PM PM  
   |--3--|        |--3--|       |-3-| |-3-|          |-3-|       |-3-|        
   S  S  S E  E   S  S  S E  E  S S S S S S    E  E  S S S E  E  S S S E  E   
--------------------------------------------|--------------------------------|
--------------------------------------------|--------------------------------|
--------------------------------------------|--------------------------------|
--10-10-10-------10-10-10-------9-9-9-9-9-9-|--------7-7-7-------7-7-7-------|
-----------7--6-----------7--6--------------|--5--4--------5--4--------5--4--|
-----------7--6-----------7--6--------------|--5--4--------5--4--------5--4--|


        PM PM                                  PM PM       PM PM       PM PM                     
  |-3-|       |-3-| |-3-| |-3-| |-3-| |-3-|          |-3-|       |-3-|           |--3--|         
  S S S E  E  S S S S S S S S S S S S S S S    E  E  S S S E  E  S S S E  E      S  S  S Q.      
--------------------------------------------|--------------------------------|------------------|
--------------------------------------------|--------------------------------|------------------|
--------------------------------------------|--------------------------------|------------------|
--6-6-6-------4-4-4-3-3-3-6-6-6-7-7-7-6-6-6-|--------7-7-7-------6-6-6-------|--10-10-10--------|
--------5--4--------------------------------|--7--6--------7--6--------7--6--|------------------|
--------5--4--------------------------------|--7--6--------7--6--------7--6--|------------------|


   1:06                                                    
   |---3---|  |--3--| |-3-| |-3-| |-3-| |-3-| |-3-| |-3-|  
   S    S  S  S  S  S S S S S S S S S S S S S S S S S S S  
----------------------------------------------------------|
----------------------------------------------------------|
----------------------------------------------------------|
--10---10-10-10-10-10-------------------------9-9-9-9-9-9-|
----------------------------------------------------------|
----------------------7-7-7-7-7-7-7-7-7-7-7-7-------------|


  |-3-| |-3-| |-3-| |-3-| |-3-| |-3-| |-3-| |-3-|  
  S S S S S S S S S S S S S S S S S S S S S S S S  
--------------------------------------------------|
--------------------------------------------------|
--------------------------------------------------|
--------------------------------------6-6-6-6-6-6-|
--------------------------------------------------|
--6-6-6-6-6-6-6-6-6-6-6-6-4-4-4-4-4-4-------------|


  |-3-| |-3-| |-3-| |-3-| |-3-| |-3-|  |--3--|  |--3--|  
  S S S S S S S S S S S S S S S S S S  S  S  S  S  S  S  
--------------------------------------------------------|
--------------------------------------------------------|
--------------------------------------------------------|
--7-7-7-7-7-7-3-3-3-3-3-3-4-4-4-4-4-4-10-10-10-10-10-10-|
--------------------------------------------------------|
--------------------------------------------------------|


  |-3-| |-3-| |-3-| |-3-| |-3-| |-3-| |-3-| |-3-|  
  S S S S S S S S S S S S S S S S S S S S S S S S  
--------------------------------------------------|
--------------------------------------------------|
--------------------------------------------------|
--------------------------9-9-9-9-9-9-------------|
--------------------------------------------------|
--7-7-7-7-7-7-7-7-7-7-7-7-------------6-6-6-6-6-6-|


                                                           1:16                             
                                                           PM   PM       PM PM       PM PM  
  |-3-| |-3-| |-3-| |-3-| |-3-| |-3-| |-3-| |-3-|                  |-3-|       |-3-|        
  S S S S S S S S S S S S S S S S S S S S S S S S E  E     E    E  S S S E  E  S S S E  E   
--------------------------------------------------------|----------------------------------|
--------------------------------------------------------|----------------------------------|
--------------------------------------------------------|----------------------------------|
--------------------------6-6-6-6-6-6-7-7-7-7-7-7-------|----------7-7-7-------7-7-7-------|
--------------------------------------------------3-----|--5----4--------5--4--------5--4--|
--6-6-6-6-6-6-4-4-4-4-4-4-------------------------3-----|--5----4--------5--4--------5--4--|


        PM PM                                  PM PM       PM PM       PM PM  
  |-3-|       |-3-| |-3-| |-3-| |-3-| |-3-|          |-3-|       |-3-|        
  S S S E  E  S S S S S S S S S S S S S S S    E  E  S S S E  E  S S S E  E   
--------------------------------------------|--------------------------------|
--------------------------------------------|--------------------------------|
--------------------------------------------|--------------------------------|
--6-6-6-------4-4-4-3-3-3-6-6-6-7-7-7-6-6-6-|--------7-7-7-------6-6-6-------|
--------5--4--------------------------------|--7--6--------7--6--------7--6--|
--------5--4--------------------------------|--7--6--------7--6--------7--6--|


           PM PM          PM PM              
   |--3--|        |--3--|       |-3-| |-3-|  
   S  S  S E  E   S  S  S E  E  S S S S S S  
--------------------------------------------|
--------------------------------------------|
--------------------------------------------|
--10-10-10-------10-10-10-------9-9-9-9-9-9-|
-----------7--6-----------7--6--------------|
-----------7--6-----------7--6--------------|


  |-3-| |-3-|  |--3--| |-3-| |-3-|  |--3--| |-3-| |-3-|  
  S S S S S S  S  S  S S S S S S S  S  S  S S S S S S S  
--------------------------------------------------------|
--------------------------------------------------------|
--------------------------------------------------------|
--------------10-10-10-------------10-10-10-------------|
--------------------------------------------------------|
--8-8-8-7-7-7----------8-8-8-7-7-7----------8-8-8-7-7-7-|


  |-3-| |-3-| |-3-| |-3-| |-3-| |-3-|  |--3--| |-3-|  
  S S S S S S S S S S S S S S S S S S  S  S  S S S S  
-----------------------------------------------------|
-----------------------------------------------------|
-----------------------------------------------------|
--9-9-9-------------7-7-7-6-6-6-9-9-9-10-10-10-9-9-9-|
-----------------------------------------------------|
--------8-8-8-7-7-7----------------------------------|


   |--3--| |-3-|  |--3--|  |--3--| |-3-| |-3-|  |--3--| |-3-|  
   S  S  S S S S  S  S  S  S  S  S S S S S S S  S  S  S S S S  
--------------------------------------------------------------|
--------------------------------------------------------------|
--------------------------------------------------------------|
-----------------10-10-10----------------9-9-9----------------|
--------------------------------------------------------------|
--10-10-10-9-9-9----------10-10-10-9-9-9-------10-10-10-9-9-9-|


   |--3--|  |--3--| |-3-|  |--3--|  |--3--| |-3-|  |--3--|  |--3--|  
   S  S  S  S  S  S S S S  S  S  S  S  S  S S S S  S  S  S  S  S  S  
--------------------------------------------------------------------|
--------------------------------------------------------------------|
--------------------------------------------------------------------|
--13-13-13----------------13-13-13----------------12-12-12-12-12-12-|
--------------------------------------------------------------------|
-----------10-10-10-9-9-9----------10-10-10-9-9-9-------------------|


  1:30                                                   
  |---3--| |-3-| |-3-| |-3-|  |--3--| |-3-| |-3-| |-3-|  
  S    S S S S S S S S S S S  S  S  S S S S S S S S S S  
--------------------------------------------------------|
--------------------------------------------------------|
--------------------------------------------------------|
--9----9-9-------9-9-9-------10-10-10-7-7-7-------9-9-9-|
-----------6-6-6-------6-6-6----------------6-6-6-------|
--------------------------------------------------------|


  |-3-| |-3-| |-3-|  |--3--| |-3-|              |-3-| |-3-| |-3-| |-3-|  |--3--| |-3-| |-3-| |-3-|  
  S S S S S S S S S  S  S  S S S S E  E   E     S S S S S S S S S S S S  S  S  S S S S S S S S S S  
---------------------------------------------|-----------------------------------------------------|
---------------------------------------------|-----------------------------------------------------|
-----------------------------------8--9--11--|-----------------------------------------------------|
--------9-9-9-------10-10-10-7-7-7-----------|--9-9-9-------9-9-9-------10-10-10-7-7-7-------9-9-9-|
--6-6-6-------6-6-6----------------6--7---9--|--------7-7-7-------7-7-7----------------7-7-7-------|
---------------------------------------------|-----------------------------------------------------|


  |-3-| |-3-| |-3-|  |--3--| |-3-| |-3-| |-3-| |-3-|  
  S S S S S S S S S  S  S  S S S S S S S S S S S S S  
-----------------------------------------------------|
-----------------------------------------------------|
-----------------------------------------------------|
--------9-9-9-------10-10-10-9-9-9-7-7-7-6-6-6-7-7-7-|
--7-7-7-------7-7-7----------------------------------|
-----------------------------------------------------|


  |-3-| |-3-| |-3-| |-3-|  |--3--| |-3-| |-3-| |-3-|    |-3-| |-3-| |-3-|  |--3--| |-3-|            
  S S S S S S S S S S S S  S  S  S S S S S S S S S S    S S S S S S S S S  S  S  S S S S E  E   E   
-----------------------------------------------------|---------------------------------------------|
-----------------------------------------------------|---------------------------------------------|
-----------------------------------------------------|-----------------------------------8--9--11--|
--9-9-9-------9-9-9-------10-10-10-7-7-7-------9-9-9-|--------9-9-9-------10-10-10-7-7-7-----------|
--------6-6-6-------6-6-6----------------6-6-6-------|--6-6-6-------6-6-6----------------6--7---9--|
-----------------------------------------------------|---------------------------------------------|


                                                                           PM PM PM PM PM        
  |-3-| |-3-| |-3-| |-3-|  |--3--| |-3-| |-3-| |-3-|    |-3-| |-3-| |-3-|                        
  S S S S S S S S S S S S  S  S  S S S S S S S S S S    S S S S S S S S S  E  E  E  E  E         
-----------------------------------------------------|------------------------------------|-----|
-----------------------------------------------------|------------------------------------|-----|
-----------------------------------------------------|------------------------------------|-----|
--9-9-9-------9-9-9-------10-10-10-7-7-7-------9-9-9-|--9-9-9-------9-9-9-----------------|-----|
--------7-7-7-------7-7-7----------------7-7-7-------|--------7-7-7-------10--9--7--6--7--|-----|
-----------------------------------------------------|--------------------10--9--7--6--7--|-----|


  1:46                                                
  |---3--| |-3-| |-3-| |-3-| |-3-| |-3-| |-3-| |-3-|  
  S    S S S S S S S S S S S S S S S S S S S S S S S  
-----------------------------------------------------|
-----------------------------------------------------|
-----------------------------------------------------|
-----------------------------------------------------|
-----------------------------------------------------|
--1----1-1-1-1-1-1-1-1-1-1-1-1-1-1-1-1-1-1-1-1-1-1-1-|


  |-3-| |-3-| |-3-| |-3-| |-3-| |-3-| |-3-| |-3-|  
  S S S S S S S S S S S S S S S S S S S S S S S S  
--------------------------------------------------|
--------------------------------------------------|
--------------------------------------------------|
--------------------------------------------------|
--------------------------------6-6-6-7-7-7-9-9-9-|
--1-1-1-1-1-1-1-1-1-1-1-1-1-1-1-------------------|


  |-3-| |-3-| |-3-| |-3-| |-3-| |-3-| |-3-| |-3-|  
  S S S S S S S S S S S S S S S S S S S S S S S S  
--------------------------------------------------|
--------------------------------------------------|
--------------------------------------------------|
--------------------------------------------------|
--------------------------------------------------|
--2-2-2-2-2-2-2-2-2-2-2-2-2-2-2-2-2-2-2-2-2-2-2-2-|


  |-3-| |-3-| |-3-|  |--3--| |-3-| |-3-| |-3-| |-3-|  
  S S S S S S S S S  S  S  S S S S S S S S S S S S S  
-----------------------------------------------------|
-----------------------------------------------------|
-----------------------------------------------------|
-----------------------------------------------------|
-----------------------------------------------------|
--2-2-2-2-2-2-2-2-2-10-10-10-9-9-9-7-7-7-6-6-6-7-7-7-|


  |-3-| |-3-| |-3-| |-3-|  |--3--| |-3-| |-3-| |-3-|    |-3-| |-3-| |-3-|  |--3--| |-3-|            
  S S S S S S S S S S S S  S  S  S S S S S S S S S S    S S S S S S S S S  S  S  S S S S E  E   E   
-----------------------------------------------------|---------------------------------------------|
-----------------------------------------------------|---------------------------------------------|
-----------------------------------------------------|-----------------------------------8--9--11--|
--9-9-9-------9-9-9-------10-10-10-7-7-7-------9-9-9-|--------9-9-9-------10-10-10-7-7-7-----------|
--------6-6-6-------6-6-6----------------6-6-6-------|--6-6-6-------6-6-6----------------6--7---9--|
-----------------------------------------------------|---------------------------------------------|


  |-3-| |-3-| |-3-| |-3-|  |--3--| |-3-| |-3-| |-3-|  
  S S S S S S S S S S S S  S  S  S S S S S S S S S S  
-----------------------------------------------------|
-----------------------------------------------------|
-----------------------------------------------------|
--9-9-9-------9-9-9-------10-10-10-7-7-7-------9-9-9-|
--------7-7-7-------7-7-7----------------7-7-7-------|
-----------------------------------------------------|


  |-3-| |-3-| |-3-|  |--3--| |-3-| |-3-| |-3-| |-3-|  
  S S S S S S S S S  S  S  S S S S S S S S S S S S S  
-----------------------------------------------------|
-----------------------------------------------------|
-----------------------------------------------------|
--------9-9-9-------10-10-10-9-9-9-7-7-7-6-6-6-7-7-7-|
--7-7-7-------7-7-7----------------------------------|
-----------------------------------------------------|


  |-3-| |-3-| |-3-| |-3-|  |--3--| |-3-| |-3-| |-3-|    |-3-| |-3-| |-3-|  |--3--| |-3-|            
  S S S S S S S S S S S S  S  S  S S S S S S S S S S    S S S S S S S S S  S  S  S S S S E  E   E   
-----------------------------------------------------|---------------------------------------------|
-----------------------------------------------------|---------------------------------------------|
-----------------------------------------------------|-----------------------------------8--9--11--|
--9-9-9-------9-9-9-------10-10-10-7-7-7-------9-9-9-|--------9-9-9-------10-10-10-7-7-7-----------|
--------6-6-6-------6-6-6----------------6-6-6-------|--6-6-6-------6-6-6----------------6--7---9--|
-----------------------------------------------------|---------------------------------------------|


  |-3-| |-3-| |-3-| |-3-|  |--3--| |-3-| |-3-| |-3-|  
  S S S S S S S S S S S S  S  S  S S S S S S S S S S  
-----------------------------------------------------|
-----------------------------------------------------|
-----------------------------------------------------|
--9-9-9-------9-9-9-------10-10-10-7-7-7-------9-9-9-|
--------7-7-7-------7-7-7----------------7-7-7-------|
-----------------------------------------------------|


  |-3-| |-3-| |-3-|  |--3--| |-3-| |-3-| |-3-| |-3-|  
  S S S S S S S S S  S  S  S S S S S S S S S S S S S  
-----------------------------------------------------|
-----------------------------------------------------|
-----------------------------------------------------|
--------9-9-9-------10-10-10-9-9-9-7-7-7-6-6-6-7-7-7-|
--7-7-7-------7-7-7----------------------------------|
-----------------------------------------------------|


  |-3-| |-3-| |-3-| |-3-|  |--3--| |-3-| |-3-| |-3-|    |-3-| |-3-| |-3-|  |--3--| |-3-|            
  S S S S S S S S S S S S  S  S  S S S S S S S S S S    S S S S S S S S S  S  S  S S S S E  E   E   
-----------------------------------------------------|---------------------------------------------|
-----------------------------------------------------|---------------------------------------------|
-----------------------------------------------------|-----------------------------------8--9--11--|
--9-9-9-------9-9-9-------10-10-10-7-7-7-------9-9-9-|--------9-9-9-------10-10-10-7-7-7-----------|
--------6-6-6-------6-6-6----------------6-6-6-------|--6-6-6-------6-6-6----------------6--7---9--|
-----------------------------------------------------|---------------------------------------------|


  |-3-| |-3-| |-3-| |-3-|  |--3--| |-3-| |-3-| |-3-|    |-3-| |-3-| |-3-|  |--3--|           
  S S S S S S S S S S S S  S  S  S S S S S S S S S S    S S S S S S S S S  S  S  S H         
-----------------------------------------------------|--------------------------------------|
-----------------------------------------------------|--------------------------------------|
-----------------------------------------------------|--------------------------------------|
--9-9-9-------9-9-9-------10-10-10-7-7-7-------9-9-9-|--------9-9-9-------10-10-10----------|
--------7-7-7-------7-7-7----------------7-7-7-------|--7-7-7-------7-7-7-------------------|
-----------------------------------------------------|--------------------------------------|


                         2:16                                    
   PM PM PM PM PM PM     PM  PM  PM   PMPM  PM   PM PM PM PM PM  
   |--3--|  |--3--|                                              
   E  E  E  E  E  E      S   S   S S  S S   S  S S  S  E  E  E   
---------------------|------------------------------------------|
---------------------|------------------------------------------|
---------------------|------------------------------------------|
---------------------|-------------7----------10----------------|
--10--9--7--9--7--6--|---------------------------7--7--7--6--5--|
--10--9--7--9--7--6--|--10---7--10---10-7--10----7--7--7--6--5--|


  PM PM  PM   PMPM  PM   PM PM PM           PM PM  PM   PMPM  PM   PM PM PM PM PM  
  S  S   S S  S S   S  S S  S  E  E   E     S  S   S S  S S   S  S S  S  E  E  E   
-----------------------------------------|----------------------------------------|
-----------------------------------------|----------------------------------------|
----------------------------------8s--5--|----------------------------------------|
-----------7----------10-----------------|-----------7----------10----------------|
-------------------------7--7--7--6s--3--|-------------------------7--7--7--6--5--|
--0--7--10---10-7--10----7--7--7---------|--0--7--10---10-7--10----7--7--7--6--5--|


  PM  PM PM    PM PM PM    PM PM PM PM PM PM    PM PM  PM   PMPM  PM   PM PM PM PM PM  
                           |--3--|  |--3--|                                            
  S   S  S  S  S  S  S  S  E  E  E  E  E  E     S  S   S S  S S   S  S S  S  E  E  E   
---------------------------------------------|----------------------------------------|
---------------------------------------------|----------------------------------------|
---------------------------------------------|----------------------------------------|
-----------10----------13--------------------|-----------7----------10----------------|
--------------------------10--9--7--9--7--6--|-------------------------7--7--7--6--5--|
--0--10-13----13-10-13----10--9--7--9--7--6--|--0--7--10---10-7--10----7--7--7--6--5--|


  PM PM  PM   PMPM  PM   PM PM PM           PM PM  PM   PMPM  PM   PM PM PM PM PM  
  S  S   S S  S S   S  S S  S  E  E   E     S  S   S S  S S   S  S S  S  E  E  E   
-----------------------------------------|----------------------------------------|
-----------------------------------------|----------------------------------------|
----------------------------------8s--5--|----------------------------------------|
-----------7----------10-----------------|-----------7----------10----------------|
-------------------------7--7--7--6s--3--|-------------------------7--7--7--6--5--|
--0--7--10---10-7--10----7--7--7---------|--0--7--10---10-7--10----7--7--7--6--5--|


                                                       2:31                                   
  PM  PM PM    PM PM PM    PM PM PM PM PM PM           PM  PM PM PM PM PM  PM PM PM PM PM PM  
                           |--3--|  |--3--|     ---    |---3--|  |--3--|   |--3--|  |--3--|   
  S   S  S  S  S  S  S  S  E  E  E  E  E  E            E   E  E  E  E  E   E  E  E  E  E  E   
---------------------------------------------|-----|-----------------------------------------|
---------------------------------------------|-----|-----------------------------------------|
---------------------------------------------|-----|-----------------------------------------|
-----------10----------13--------------------|-----|-----------------------------------------|
--------------------------10--9--7--9--7--6--|-----|--10---9--7--9--7--6--10--9--7--9--7--6--|
--0--10-13----13-10-13----10--9--7--9--7--6--|-----|--10---9--7--9--7--6--10--9--7--9--7--6--|


  PM PM  PM   PMPM  PM   PM PM PM PM PM     PM PM PM PM PM PM  PM PM PM PM PM PM  
                                            |--3--|  |--3--|   |--3--|  |--3--|   
  S  S   S S  S S   S  S S  S  E  E  E      E  E  E  E  E  E   E  E  E  E  E  E   
----------------------------------------|----------------------------------------|
----------------------------------------|----------------------------------------|
----------------------------------------|----------------------------------------|
-----------7----------10----------------|----------------------------------------|
-------------------------7--7--7--6--5--|--10--9--7--9--7--6--10--9--7--9--7--6--|
--0--7--10---10-7--10----7--7--7--6--5--|--10--9--7--9--7--6--10--9--7--9--7--6--|


  PM  PM PM    PM PM PM   PM PM           PM PM PM PM PM PM  PM PM PM PM PM PM  
                                          |--3--|  |--3--|   |--3--|  |--3--|   
  S   S  S  S  S  S  S  S E  E   Q        E  E  E  E  E  E   E  E  E  E  E  E   
--------------------------------------|----------------------------------------|
--------------------------------------|----------------------------------------|
--------------------------------------|----------------------------------------|
-----------10----------13-------------|----------------------------------------|
--------------------------6--7--10----|--10--9--7--9--7--6--10--9--7--9--7--6--|
--0--10-13----13-10-13----6--7--10----|--10--9--7--9--7--6--10--9--7--9--7--6--|


  PM PM  PM   PMPM  PM   PM PM PM PM PM     PM PM PM PM PM PM  PM PM PM PM PM PM  
                                            |--3--|  |--3--|   |--3--|  |--3--|   
  S  S   S S  S S   S  S S  S  E  E  E      E  E  E  E  E  E   E  E  E  E  E  E   
----------------------------------------|----------------------------------------|
----------------------------------------|----------------------------------------|
----------------------------------------|----------------------------------------|
-----------7----------10----------------|----------------------------------------|
-------------------------7--7--7--6--5--|--10--9--7--9--7--6--10--9--7--9--7--6--|
--0--7--10---10-7--10----7--7--7--6--5--|--10--9--7--9--7--6--10--9--7--9--7--6--|


                                               2:45                       
  PM  PM PM    PM PM PM   PM PM PM PM PM PM    PM   PM PM PM PM PM PM PM  
                          |--3--|  |--3--|                                
  S   S  S  S  S  S  S  S E  E  E  E  E  E     E    E  E  E  E  E  E  E   
--------------------------------------------|----------------------------|
--------------------------------------------|----------------------------|
--------------------------------------------|----------------------------|
-----------10----------13-------------------|----------------------------|
--------------------------3--3--3--2--2--2--|--4----4--4--4--4--4--4--4--|
--0--10-13----13-10-13----4--4--4--3--3--3--|--5----5--5--5--5--5--5--5--|


  PM PM PM PM PM PM PM PM PM PM    PM PM PM PM PM PM PM PM  
              |--3--|  |--3--|                              
  E  E  E  E  E  E  E  E  E  E     E  E  E  E  E  E  E  E   
--------------------------------|--------------------------|
--------------------------------|--------------------------|
--------------------------------|--------------------------|
--------------------------------|--------------------------|
--4--4--4--4--4--4--4--7--7--7--|--3--3--3--3--3--3--3--3--|
--5--5--5--5--5--5--5--8--8--8--|--4--4--4--4--4--4--4--4--|


  PM PM PM       PM PM PM       PM PM PM PM PM PM    PM PM PM PM PM PM PM PM  
  |--3--|  |-3-| |--3--|  |-3-| |--3--|  |--3--|                              
  S  S  S  S S S S  S  S  S S S E  E  E  E  E  E     E  E  E  E  E  E  E  E   
--------------------------------------------------|--------------------------|
--------------------------------------------------|--------------------------|
--------------------------------------------------|--------------------------|
-----------4-4-4----------7-7-7-------------------|--------------------------|
--------------------------------3--3--3--6--6--6--|--4--4--4--4--4--4--4--4--|
--4--4--4--------4--4--4--------4--4--4--7--7--7--|--5--5--5--5--5--5--5--5--|


  PM PM PM PM PM PM PM PM PM PM    PM PM PM PM PM PM PM PM  
              |--3--|  |--3--|                              
  E  E  E  E  E  E  E  E  E  E     E  E  E  E  E  E  E  E   
--------------------------------|--------------------------|
--------------------------------|--------------------------|
--------------------------------|--------------------------|
--------------------------------|--------------------------|
--4--4--4--4--4--4--4--7--7--7--|--3--3--3--3--3--3--3--3--|
--5--5--5--5--5--5--5--8--8--8--|--4--4--4--4--4--4--4--4--|


  PM PM PM       PM PM PM       PM PM PM PM PM PM    PM PM PM PM PM PM PM PM  
  |--3--|  |-3-| |--3--|  |-3-| |--3--|  |--3--|                              
  S  S  S  S S S S  S  S  S S S E  E  E  E  E  E     E  E  E  E  E  E  E  E   
--------------------------------------------------|--------------------------|
--------------------------------------------------|--------------------------|
--------------------------------------------------|--------------------------|
-----------4-4-4----------7-7-7-------------------|--------------------------|
--------------------------------3--3--3--6--6--6--|--4--4--4--4--4--4--4--4--|
--4--4--4--------4--4--4--------4--4--4--7--7--7--|--5--5--5--5--5--5--5--5--|


  PM PM PM PM PM PM PM PM PM PM    PM PM PM PM PM PM PM PM  
              |--3--|  |--3--|                              
  E  E  E  E  E  E  E  E  E  E     E  E  E  E  E  E  E  E   
--------------------------------|--------------------------|
--------------------------------|--------------------------|
--------------------------------|--------------------------|
--------------------------------|--------------------------|
--4--4--4--4--4--4--4--7--7--7--|--3--3--3--3--3--3--3--3--|
--5--5--5--5--5--5--5--8--8--8--|--4--4--4--4--4--4--4--4--|


  PM PM PM       PM PM PM       PM PM PM PM PM PM    PM PM PM PM PM PM PM PM  
  |--3--|  |-3-| |--3--|  |-3-| |--3--|  |--3--|                              
  S  S  S  S S S S  S  S  S S S E  E  E  E  E  E     E  E  E  E  E  E  E  E   
--------------------------------------------------|--------------------------|
--------------------------------------------------|--------------------------|
--------------------------------------------------|--------------------------|
-----------4-4-4----------7-7-7-------------------|--------------------------|
--------------------------------3--3--3--6--6--6--|--4--4--4--4--4--4--4--4--|
--4--4--4--------4--4--4--------4--4--4--7--7--7--|--5--5--5--5--5--5--5--5--|


  PM PM PM PM PM PM PM PM PM PM    PM PM PM PM PM PM PM PM    PM PM PM       PM PM PM        
              |--3--|  |--3--|                                |--3--|  |-3-| |--3--|  |-3-|  
  E  E  E  E  E  E  E  E  E  E     E  E  E  E  E  E  E  E     S  S  S  S S S S  S  S  S S S  
--------------------------------|--------------------------|--------------------------------|
--------------------------------|--------------------------|--------------------------------|
--------------------------------|--------------------------|--------------------------------|
--------------------------------|--------------------------|-----------4-4-4----------7-7-7-|
--4--4--4--4--4--4--4--7--7--7--|--3--3--3--3--3--3--3--3--|--------------------------------|
--5--5--5--5--5--5--5--8--8--8--|--4--4--4--4--4--4--4--4--|--4--4--4--------4--4--4--------|


  3:12                                                                                      
  PM                                            PM   PM   PM   PM      PM   PM   PM         
  Q    H.              H        Q      Q        Q    Q    Q    Q       Q    Q    Q    Q     
--------------------|------------------------|----------------------|----------------------|
--------------------|------------------------|----------------------|----------------------|
--------------------|------------------------|----------------------|----------------------|
--------------------|------------------------|----------------------|----------------------|
--4-----------------|------------------------|--4----5----4----3----|--4----5----4----7----|
--5-----------------|-----------6s----18\----|--5----6----5----4----|--5----6----5----8----|


  PM   PM   PM   PM      PM   PM   PM   PM PM    PM   PM   PM   PM      PM   PM   PM         
  Q    Q    Q    Q       Q    Q    Q    E  E     Q    Q    Q    Q       Q    Q    Q    Q     
----------------------|-----------------------|----------------------|----------------------|
----------------------|-----------------------|----------------------|----------------------|
----------------------|-----------------------|----------------------|----------------------|
----------------------|-----------------------|----------------------|----------------------|
--4----5----4----3----|--4----5----4----7--7--|--4----5----4----3----|--4----5----4----7----|
--5----6----5----4----|--5----6----5----8--8--|--5----6----5----4----|--5----6----5----8----|


                                                 3:22                                      
  PM   PM   PM   PM      PM   PM   PM   PM PM    PM   PM   PM   PM      PM       PM        
  Q    Q    Q    Q       Q    Q    Q    E  E     Q    Q    Q    Q       H        H         
----------------------|-----------------------|----------------------|--------------------|
----------------------|-----------------------|----------------------|--------------------|
----------------------|-----------------------|----------------------|--------------------|
----------------------|-----------------------|--2----3----2----1----|--2--------3--------|
--4----5----4----3----|--4----5----4----7--7--|--1----2----1----0----|--1--------2--------|
--5----6----5----4----|--5----6----5----8--8--|--2----3----2----1----|--2--------3--------|


  PM                                         PM   PM   PM   PM      PM   PM   PM         
  H        H           H        H            Q    Q    Q    Q       Q    Q    Q    Q     
--------------------|---------------------|----------------------|----------------------|
--------------------|---------------------|----------------------|----------------------|
--------------------|---------------------|----------------------|----------------------|
--2--------3--------|--3--------4b--------|----------------------|----------------------|
--1--------3--------|--3--------4b--------|--4----5----4----3----|--4----5----4----7----|
--2-----------------|---------------------|--5----6----5----4----|--5----6----5----8----|


  PM   PM   PM   PM      PM   PM   PM   PM PM    PM   PM   PM   PM      PM       PM        
  Q    Q    Q    Q       Q    Q    Q    E  E     Q    Q    Q    Q       H        H         
----------------------|-----------------------|----------------------|--------------------|
----------------------|-----------------------|----------------------|--------------------|
----------------------|-----------------------|----------------------|--------------------|
----------------------|-----------------------|--2----3----2----1----|--2--------3--------|
--4----5----4----3----|--4----5----4----7--7--|--1----2----1----0----|--1--------2--------|
--5----6----5----4----|--5----6----5----8--8--|--2----3----2----1----|--2--------3--------|


                                             3:34                                      
  PM                                         PM   PM   PM   PM      PM       PM        
  H        H           H        H            Q    Q    Q    Q       H        H         
--------------------|---------------------|----------------------|--------------------|
--------------------|---------------------|----------------------|--------------------|
--------------------|---------------------|----------------------|--------------------|
--2--------3--------|--3--------4b--------|--2----3----2----1----|--2--------3--------|
--1--------3--------|--3--------4b--------|--1----2----1----0----|--1--------2--------|
--2-----------------|---------------------|--2----3----2----1----|--2--------3--------|


  PM                                         PM   PM   PM   PM      PM       PM        
  H        H           H        H            Q    Q    Q    Q       H        H         
--------------------|---------------------|----------------------|--------------------|
--------------------|---------------------|----------------------|--------------------|
--------------------|---------------------|----------------------|--------------------|
--2--------3--------|--3--------4b--------|--2----3----2----1----|--2--------3--------|
--1--------3--------|--3--------4b--------|--1----2----1----0----|--1--------2--------|
--2-----------------|---------------------|--2----3----2----1----|--2--------3--------|


  PM                                         PM   PM   PM   PM      PM       PM        
  H        H           H        H            Q    Q    Q    Q       H        H         
--------------------|---------------------|----------------------|--------------------|
--------------------|---------------------|----------------------|--------------------|
--------------------|---------------------|----------------------|--------------------|
--2--------3--------|--3--------4b--------|--2----3----2----1----|--2--------3--------|
--1--------3--------|--3--------4b--------|--1----2----1----0----|--1--------2--------|
--2-----------------|---------------------|--2----3----2----1----|--2--------3--------|


  PM                                         PM   PM   PM   PM      PM       PM        
  H        H           H        H            Q    Q    Q    Q       H        H         
--------------------|---------------------|----------------------|--------------------|
--------------------|---------------------|----------------------|--------------------|
--------------------|---------------------|----------------------|--------------------|
--2--------3--------|--3--------4b--------|--2----3----2----1----|--2--------3--------|
--1--------3--------|--3--------4b--------|--1----2----1----0----|--1--------2--------|
--2-----------------|---------------------|--2----3----2----1----|--2--------3--------|


  PM                                         PM   PM   PM   PM      PM       PM        
  H        H           H        H            Q    Q    Q    Q       H        H         
--------------------|---------------------|----------------------|--------------------|
--------------------|---------------------|----------------------|--------------------|
--------------------|---------------------|----------------------|--------------------|
--2--------3--------|--3--------4b--------|--2----3----2----1----|--2--------3--------|
--1--------3--------|--3--------4b--------|--1----2----1----0----|--1--------2--------|
--2-----------------|---------------------|--2----3----2----1----|--2--------3--------|


  PM                   PM   PM   PM          
  H        H           Q    Q    Q    Q      
--------------------|----------------------||
--------------------|----------------------||
--------------------|----------------------||
--2--------3--------|----------------------||
--1--------3--------|--3----2----0---------||
--2-----------------|--4----3----0---------||



Tablature Legend
----------------

NH - natural harmonic
PH - pitch harmonic
h - hammer on
p - pull off
/ -  slide into from below or out of upwards
\ -  slide into from above or out of downwards
W - whole
H - half
Q - quarter
E - 8th
S - 16th
Suggest correction
Creating personal tab
Creating personal tab
You can edit any tab online and save it as your Personal.

You can edit, replace or remove any tab part or add personal notes – all changes will be seen only by you.

Personal tabs can be accessed anytime from any device, even offline.
Learn more »
Give kudos to tab author, rate the tab!
1 2 3 4 5
comments
print report bad tab
guest
You may want to rate the tab now too:
select rating
Wanna post a correction for this tab? Suggest correction