Oops, an error
Loading. Please wait.

Until I Die tab

version 1
version 1

Whole song

Interactive

1,546 views 18 this week
7 commentsread comments
1 2 3 4 5
1 last vote to show rating
add to favorites
×
Save as Personal and add changes to this tab that will be seen only by you. Learn more ›
×
You can save this tab as Personal to edit and correct it or add notes. All changes will be seen only by you. Learn more »
launch autoscroll
font size
0
reset
how to read this tab
guitar tuner
edit
Autoscroll
slow
fast
+/-
esc
set tempo
stop
Tuning: Eb Ab Db Gb Bb Eb / D# G# C# F# A# D# (Half Step Down)
Note: SOLO ON THE WAY
Please rate and give feed back!


[Intro Riff]

Please note, I will refer to the strings in there standerd tuning, however they are 
actually down a half step
(eg: It says E string, but is actually Eb/D#)

D#|-----------------------------|
A#|-----------------------------|
F#|-----------------------------|
C#|-------------------------5---|
G#|---------------5-----5h7---7-|
D#|-0---0---5h6-7----7----------|

Repeat 4x solo, then 4x again when the drums and bass come in!


[Verse]

D#|-------------------------------------------------------|
A#|-2-2---2-2---2-2---2-2---------------------------------|
F#|-2-2---2-2---2-2---2-2---------------------------------|
C#|-2-2---2-2---2-2---2-2-0---------------------------5---|
G#|-0-0---0-0---0-0---0-0-x-----------------5-----5h7---7-|
D#|-----------------------3---0---0---5h6-7----7----------|

D#|------------------------------------------------------------|
A#|-2-2---2-2---2-2---2----------------------------------------|
F#|-2-2---2-2---2-2---2----------------------------------------|
C#|-2-2---2-2---2-2---2-3-3-3-3----------------------------5---|
G#|-0-0---0-0---0-0---0-1-1-1-1------------------5-----5h7---7-|
D#|--------------------------------0---0---5h6-7----7----------|


[Bridge]

D#|----------------------------------|
A#|----------------------------------|
F#|----------------------------------|
C#|-5--------------------------------|
G#|-3-------7----7b1/4---5-----------|
D#|---------5-----------------6-5-3V-|

Note: After the second chorus, the bridge is the same, but the 3 power chords repeated twice before the
picking lick


[Chorus]

D#|-3---3------3--------------------------------------------------------------|
A#|-3---3------3--------------------------------------------------------------|
F#|-0---0------0----------------------2---2-2---------------------------------|
C#|-0---0------0----------------------2---2-2---3-5-3h4-5---------------------|
G#|-x---x------x----/7--5-------------0---0-0---3-5-3---3----/7--5------------|
D#|-3---3------3-----------6-5-3V-----------------------------------6-5-3V----|



************************************

/ = Slide
h = Hammer on
p = Pull off
b1/4 = Quarter bend (blues bend
b(*NUMBER*) = Bend string to that frets pitch e.g. 10b(12) = bend at 10th fret to 12th
V = vibrato

************************************
Suggest correction
Creating personal tab
Creating personal tab
You can edit any tab online and save it as your Personal.

You can edit, replace or remove any tab part or add personal notes – all changes will be seen only by you.

Personal tabs can be accessed anytime from any device, even offline.
Learn more »
Give kudos to tab author, rate the tab!
1 2 3 4 5
comments
print report bad tab
7 comments total. Showing first comments.
0 reply
ComaAlpha 193 Mar 06, 2017 06:03 PM

I don't know why you are hammering on from the A to the A#, I'm watching the music video right now and the guitarists don't go 567, they go 5 straight to the 7.

0 reply
olliemiles3 10 Mar 21, 2017 02:29 PM, edited at 06:30 pm

Great tab, not too sure on the accuracy on the bridge section but the rest of it is spot on to my ears

guest
You may want to rate the tab now too:
select rating
Wanna post a correction for this tab? Suggest correction