Oops, an error
Loading. Please wait.

Little Romance Tab

5,098 views 21 this week
1 commentread comment
1 2 3 4 5
excellent!
x 4
add to favorites
launch autoscroll
font size
0
reset
how to read this tab
guitar tuner
Autoscroll
slow
fast
+/-
esc
set tempo
stop
Help us to improve Ultimate-Guitar.com Take our survey!
×
Author
Difficulty
McOlga 216
novice
                             Little Romance - Ingrid Michaelson
-----------------------------------------------------------------------------
Tabbed by: Olga
E-mail: olga6pcps@hotmail.com

Tuning: Standard
Capo2

Intro:
e|-----3----3-------3------3-------3----3-------3------3---------------------|
B|-----3----3-------3------3-------3----3-------3------3---------------------|
G|-----0----0-------0------0-------0----0-------0------0---------------------|
D|--------------0---------------------------0--------------------------------|
A|---------------------3---------------------------3-------------------------|
E|--3--------------------------3---------------------------------------------|

Verse1:

You're in the mood for love
e|-----3----3-------3------3-------3----3-------3------3---------------------|
B|-----3----3-------3------3-------3----3-------3------3---------------------|
G|-----0----0-------0------0-------0----0-------0------0---------------------|
D|--------------0---------------------------0--------------------------------|
A|---------------------3---------------------------3-------------------------|
E|--3--------------------------3---------------------------------------------|

You're in the mood to dance
e|-----3----3-------3------3-------3----3-------3------3----------------------|
B|-----3----3-------3------3-------3----3-------3------3----------------------|
G|-----0----0-------0------0-------0----0-------0------0----------------------|
D|--------------0---------------------------0-------0-------------------------|
A|---------------------2-------0----------------------------------------------|
E|--3-------------------------------------------------------------------------|

You're in the mood for a little romance
e|-----3----3-------3------3-------3----3-------3------3----------------------|
B|-----3----3-------3------3-------3----3-------3------3----------------------|
G|--0---------------0------0-------0----0-------0------0----------------------|
D|--------------0-------0-------2------------2------0-------------------------|
A|----------------------------------------------------------------------------|
E|----------------------------------------------------------------------------|

You're in the mood for love
e|-----3----3-------3------3-------3----3-------3------3----------------------|
B|-----3----3-------3------3-------3----3-------3------3----------------------|
G|-----0----0-------0------0-------0----0-------0------0----------------------|
D|--------------0-------0--------------------0------0-------------------------|
A|--2-------------------------------------------------------------------------|
E|-----------------------------3----------------------------------------------|

I see you pressed those pants
I see you styled the hair
That doesn't seem to be much of it there
You're in the mood to dance
e|-----3----3-------3------3-------3----3-------------------------------------|
B|-----3----3-------3------3-------3----3-------------------------------------|
G|-----0----0-------0------0-------0----0-------------------------------------|
D|--------------0-------0---------------------------0-------------------------|
A|--2-----------------------------------------0--2----------------------------|
E|-----------------------------3-----------3----------------------------------|

Chorus:
C     G         D     Dsus2
Can I have this chance
C     G         D     Dsus2
To be your little romance
C     G         D     Dsus2
Can I have this  dance
C
I'm in the mood for love

Verse 2:

I'm all dressed up tonight
I've waited all night long
When will they finally play your song
I'm in the mood to dance

Chorus:

C     G         D     Dsus2
Can I have this chance
C     G         D     Dsus2
To be your little romance
C     G         D     Dsus2
Can I have this  dance
C          G        Em
I'm in the mood for love
C
I'm in the mood for love

Bridge:

C           G            D
If it's the only chance i get
C           G            D
If it's the only chance then get
C           G            D
Ready to throw your shoes away
C           G            D
For I will sweep sweep sweep
D      Dsus2
You off your feet
C           G            D
For I will sweep sweep sweep
              C   G   D
You off your feet
C          G            D
To be your little romance

Chorus
Suggest correction new What's this?
You can suggest a correction to this tab. Community and Mods will review your correction and vote to approve or reject it.
comments
print report bad tab
1 comment total.
0 reply
zpdrumer 207 wrote on June 11 2014, 09:40 pm

awesome tab but i think this section
You're in the mood for love
e|-----3----3-------3------3-------3----3-------3------3----------------------|
B|-----3----3-------3------3-------3----3-------3------3----------------------|
G|-----0----0-------0------0-------0----0-------0------0----------------------|
D|--------------0-------0--------------------0------0-------------------------|
A|--2-------------------------------------------------------------------------|
E|-----------------------------3----------------------------------------------|
should start on the 3rd fret (D) rather than the c#on the 2nd

guest
You may want to rate the tab now too:
select rating
Please do not post tabs as comments. Select "correction" instead!