Oops, an error
Loading. Please wait.

Sort Of Tab

version 1
version 1

Whole song

6,329 views 6 this week
no commentswrite comment
1 2 3 4 5
2 more votes to show rating
add to favorites
launch autoscroll
font size
0
reset
how to read this tab
guitar tuner
Autoscroll
slow
fast
+/-
esc
set tempo
stop
Help us to improve Ultimate-Guitar.com Take our survey!
×
Author
Difficulty
-------------------------------------------------------------------------------
Sort Of – Ingrid Michaelson
-------------------------------------------------------------------------------
Tabbed by:  Rach
Email:  rachelmglenn@gmail.com

Tuning: standard

Picking patterns

D
e|-----------------2----------------2------------------------------ -----------|
B|---------------------3----------------3--------------------------------------|
G|----------2-------------------2----------------------------------------------|
D|-----0--------------------0--------------------------------------------------|
A|-----------------------------------------------------------------------------|
E|-----------------------------------------------------------------------------|

Em7
e|----------------3-------------------3----------------------------------------|
B|---------------------3------------------3------------------------------------|
G|---------0-------------------0-----------------------------------------------|
D|-----------------------------------------------------------------------------|
A|------2-----------------2----------------------------------------------------|
E|-----------------------------------------------------------------------------|

Chords for verses:

D
e|--------2---------------------------------------------------------------------|
B|-------3----------------------------------------------------------------------|
G|------2-----------------------------------------------------------------------|
D|------0-----------------------------------------------------------------------|
A|------------------------------------------------------------------------------|
E|------------------------------------------------------------------------------|

Dsus4
e|------3--------------------------------------------------------------------|
B|-----3---------------------------------------------------------------------|
G|-----2---------------------------------------------------------------------|
D|-----0---------------------------------------------------------------------|
A|---------------------------------------------------------------------------|
E|---------------------------------------------------------------------------|

Asus4
e|------3--------------------------------------------------------------------|
B|-----3---------------------------------------------------------------------|
G|-----0---------------------------------------------------------------------|
D|-----2---------------------------------------------------------------------|
A|---------------------------------------------------------------------------|
E|---------------------------------------------------------------------------|

Em7
e|------3--------------------------------------------------------------------|
B|-----3---------------------------------------------------------------------|
G|-----0---------------------------------------------------------------------|
D|-----0---------------------------------------------------------------------|
A|-----2---------------------------------------------------------------------|
E|---------------------------------------------------------------------------|

Chords for chorus:

A
e|-------0----------------------------------------------------------------------|
B|-------2----------------------------------------------------------------------|
G|-------2----------------------------------------------------------------------|
D|-------2----------------------------------------------------------------------|
A|-------0----------------------------------------------------------------------|
E|------------------------------------------------------------------------------|

G
e|------------3-----------------------------------------------------------------|
B|----------3-------------------------------------------------------------------|
G|--------0---------------------------------------------------------------------|
D|-------0----------------------------------------------------------------------|
A|------2-----------------------------------------------------------------------|
E|------3-----------------------------------------------------------------------|

G/F#:

e|------------3-----------------------------------------------------------------|
B|----------3-------------------------------------------------------------------|
G|--------0---------------------------------------------------------------------|
D|-------0----------------------------------------------------------------------|
A|------0-----------------------------------------------------------------------|
E|------2-----------------------------------------------------------------------|


************************************************************************
Lyrics:

D (picking)	                  Em7
Baby you've got the sort of hands to rip me apart
D		 				    Em7
And baby you've got the sort of face to start this old heart
D(1 strum each  chord)    Dsus4   Asus4
But your eyes are warning me this early morning
Em7
That my love's too big for you my love

D						 Em7
Baby you've got the sort of laugh that waters me
D								Em7
And makes me grow tall and strong and proud and flattens me
Dsus4			     D			   Asus4
I find you stunning, but you are running me down
Em7
My love's too big for you my love
Em7
My love's too big for you my love

Chorus:
A(strum/do whatever you want)G
And if I was stronger then I would tell you no
A					  G
And if I was stronger then I would leave this show
A					  G
And if I was stronger then I would up and go
D		   Em7
But here I am and here we go again

D						Em7
Baby you've got the sort of eyes that tell me tales
D				  Em7
That your sort of mouth just will not say, the truth impales
D		    Dsus4    Asus4
That you don't need me, but you won't leave me
Em7
My love's too big for you my love
Em7
My love's too big for you my love

Chorus

D/F#
Tell me what to do to take away the you?

Chorus
Suggest correction
Give kudos to tab author, rate the tab!
1 2 3 4 5
comments
print report bad tab
guest
You may want to rate the tab now too:
select rating
Wanna post a correction for this tab? Suggest correction