Oops, an error
Loading. Please wait.

Sort Of tab

version 3
version 3

Whole song

  • This is a tab that is easy to sing to and play. It... Show more
28 views 1 this week
no commentswrite comment
1 2 3 4 5
1 last vote to show rating
add to favorites
×
Save as Personal and add changes to this tab that will be seen only by you. Learn more ›
×
You can save this tab as Personal to edit and correct it or add notes. All changes will be seen only by you. Learn more »
launch autoscroll
font size
0
reset
how to read this tab
guitar tuner
edit
Autoscroll
slow
fast
+/-
esc
set tempo
stop
About this tab version
This is a tab that is easy to sing to and play. It just follows the piano throughout the song. I also modified the bridge because she does many overlapping voices there, and this one is for a solo performance. Also my first tab, so let me know how I did. No capo, standard tuning. Was this info helpful? Yes No
[Intro]

e|---------------------------------------------------------------------------|
B|-3---3---3---3---3---3---3---3---3---3---3---3---3---3---3---3-------------|
G|---------------------------------------------------------------------------|
D|---0---0---0---0---2---2---2---2---4---4---4---4---5---5---5---5-----------|
A|---------------------------------------------------------------------------|
E|---------------------------------------------------------------------------|

e|---------------------------------------------------------------------------|
B|-3---3---3---3---3---3---3---3---3---3---3---3---3---3---3---3-------------|
G|---------------------------------------------------------------------------|
D|---0---0---0---0---2---2---2---2---4---4---4---4---5---5---5---5-----------|
A|---------------------------------------------------------------------------|
E|---------------------------------------------------------------------------|


[Verse]

e|---------------------------------------------------------------------------|
B|-3---3---3---3---3---3---3---3---3---3---3---3---3---3---3---3-------------|
G|---------------------------------------------------------------------------|
D|---0---0---0---0---2---2---2---2---4---4---4---4---5---5---5---5-----------|
A|---------------------------------------------------------------------------|
E|---------------------------------------------------------------------------|
  Baby, you've got the sort of hands to rip me apart

e|---------------------------------------------------------------------------|
B|-3---3---3---3---3---3---3---3---3---3---3---3---3---3---3---3-------------|
G|---------------------------------------------------------------------------|
D|---0---0---0---0---2---2---2---2---4---4---4---4---5---5---5---5-----------|
A|---------------------------------------------------------------------------|
E|---------------------------------------------------------------------------|
  And baby, you've got the sort of face to start this old heart

e|---------------------------------------------------------------------------|
B|-3---3---3---3---3---3---3---3---3---3---3---3---3---3---3---3-------------|
G|---------------------------------------------------------------------------|
D|---0---0---0---0---2---2---2---2---4---4---4---4---5---5---5---5-----------|
A|---------------------------------------------------------------------------|
E|---------------------------------------------------------------------------|
  But your eyes are warning me this early morning

e|---------------------------------------------------------------------------|
B|-3---3---3---3---3---3---3---3---3---3---3---3---3---3---3---3-------------|
G|---------------------------------------------------------------------------|
D|---0---0---0---0---2---2---2---2---4---4---4---4---5---5---5---5-----------|
A|---------------------------------------------------------------------------|
E|---------------------------------------------------------------------------|
  That my love's too big for you my love

e|---------------------------------------------------------------------------|
B|-3---3---3---3---3---3---3---3---3---3---3---3---3---3---3---3-------------|
G|---------------------------------------------------------------------------|
D|---0---0---0---0---2---2---2---2---4---4---4---4---5---5---5---5-----------|
A|---------------------------------------------------------------------------|
E|---------------------------------------------------------------------------|
  Baby you've got the sort of laugh that waters me

e|---------------------------------------------------------------------------|
B|-3---3---3---3---3---3---3---3---3---3---3---3---3---3---3---3-------------|
G|---------------------------------------------------------------------------|
D|---0---0---0---0---2---2---2---2---4---4---4---4---5---5---5---5-----------|
A|---------------------------------------------------------------------------|
E|---------------------------------------------------------------------------|
  And makes me grow tall and strong and proud and flattens me

e|---------------------------------------------------------------------------|
B|-3---3---3---3---3---3---3---3---3---3---3---3---3---3---3---3-------------|
G|---------------------------------------------------------------------------|
D|---0---0---0---0---2---2---2---2---4---4---4---4---5---5---5---5-----------|
A|---------------------------------------------------------------------------|
E|---------------------------------------------------------------------------|
  I find you stunning, but you are running me down

e|---------------------------------------------------------------------------|
B|-3---3---3---3---3---3---3---3---3---3---3---3---3---3---3---3-------------|
G|---------------------------------------------------------------------------|
D|---0---0---0---0---2---2---2---2---4---4---4---4---5---5---5---5-----------|
A|---------------------------------------------------------------------------|
E|---------------------------------------------------------------------------|
  My love's too big for you my love

e|---------------------------------------------------------------------------|
B|-3---3---3---3---3---3---3---3---3---3---3---3---3---3---3---3-------------|
G|---------------------------------------------------------------------------|
D|---0---0---0---0---2---2---2---2---4---4---4---4---5---5---5---5-----------|
A|---------------------------------------------------------------------------|
E|---------------------------------------------------------------------------|
  My love's too big for you my love


[Chorus]

e|---------------------------------------------------------------------------|
B|---3---3---3---3---3---3---3---3---3---3---3---3---3---3---3---3-----------|
G|---------------------------------------------------------------------------|
D|---------------------------------------------------------------------------|
A|-----------------0---0---0---0---2---2---2---2---4---4---4---4-------------|
E|-3---3---3---3-------------------------------------------------------------|
  And if I was stronger then I would tell you no

e|---------------------------------------------------------------------------|
B|---3---3---3---3---3---3---3---3---3---3---3---3---3---3---3---3-----------|
G|---------------------------------------------------------------------------|
D|---------------------------------------------------------------------------|
A|-----------------0---0---0---0---2---2---2---2---4---4---4---4-------------|
E|-3---3---3---3-------------------------------------------------------------|
  And if I was stronger than I would leave this show

e|---------------------------------------------------------------------------|
B|---3---3---3---3---3---3---3---3---3---3---3---3---3---3---3---3-----------|
G|---------------------------------------------------------------------------|
D|---------------------------------------------------------------------------|
A|-----------------0---0---0---0---2---2---2---2---4---4---4---4-------------|
E|-3---3---3---3-------------------------------------------------------------|
  And if I was stronger than I would up and go

e|---------------------------------------------------------------------------|
B|--3------------------------------3-----------------------------------------|
G|---------------------------------------------------------------------------|
D|---------------------------------------------------------------------------|
A|---------------------------------2-----------------------------------------|
E|--3------------------------------------------------------------------------|
  But here I am,                   And here we go again

e|---------------------------------------------------------------------------|
B|-3---3---3---3---3---3---3---3---3---3---3---3---3---3---3---3-------------|
G|---------------------------------------------------------------------------|
D|---0---0---0---0---2---2---2---2---4---4---4---4---5---5---5---5-----------|
A|---------------------------------------------------------------------------|
E|---------------------------------------------------------------------------|


[Verse]

e|---------------------------------------------------------------------------|
B|-3---3---3---3---3---3---3---3---3---3---3---3---3---3---3---3-------------|
G|---------------------------------------------------------------------------|
D|---0---0---0---0---2---2---2---2---4---4---4---4---5---5---5---5-----------|
A|---------------------------------------------------------------------------|
E|---------------------------------------------------------------------------|
  Baby, you've got the sort of eyes to tell me tales

e|---------------------------------------------------------------------------|
B|-3---3---3---3---3---3---3---3---3---3---3---3---3---3---3---3-------------|
G|---------------------------------------------------------------------------|
D|---0---0---0---0---2---2---2---2---4---4---4---4---5---5---5---5-----------|
A|---------------------------------------------------------------------------|
E|---------------------------------------------------------------------------|
  That your sort of mouth just will not say, the truth impales

e|---------------------------------------------------------------------------|
B|-3---3---3---3---3---3---3---3---3---3---3---3---3---3---3---3-------------|
G|---------------------------------------------------------------------------|
D|---0---0---0---0---2---2---2---2---4---4---4---4---5---5---5---5-----------|
A|---------------------------------------------------------------------------|
E|---------------------------------------------------------------------------|
  That you don't need me, but you won't leave me

e|---------------------------------------------------------------------------|
B|-3---3---3---3---3---3---3---3---3---3---3---3---3---3---3---3-------------|
G|---------------------------------------------------------------------------|
D|---0---0---0---0---2---2---2---2---4---4---4---4---5---5---5---5-----------|
A|---------------------------------------------------------------------------|
E|---------------------------------------------------------------------------|
  That my love's too big for you my love

e|---------------------------------------------------------------------------|
B|-3---3---3---3---3---3---3---3---3---3---3---3---3---3---3---3-------------|
G|---------------------------------------------------------------------------|
D|---0---0---0---0---2---2---2---2---4---4---4---4---5---5---5---5-----------|
A|---------------------------------------------------------------------------|
E|---------------------------------------------------------------------------|
  My love's too big for you my love


[Chorus]

e|---------------------------------------------------------------------------|
B|---3---3---3---3---3---3---3---3---3---3---3---3---3---3---3---3-----------|
G|---------------------------------------------------------------------------|
D|---------------------------------------------------------------------------|
A|-----------------0---0---0---0---2---2---2---2---4---4---4---4-------------|
E|-3---3---3---3-------------------------------------------------------------|
  And if I was stronger then I would tell you no

e|---------------------------------------------------------------------------|
B|---3---3---3---3---3---3---3---3---3---3---3---3---3---3---3---3-----------|
G|---------------------------------------------------------------------------|
D|---------------------------------------------------------------------------|
A|-----------------0---0---0---0---2---2---2---2---4---4---4---4-------------|
E|-3---3---3---3-------------------------------------------------------------|
  And if I was stronger than I would leave this show

e|---------------------------------------------------------------------------|
B|---3---3---3---3---3---3---3---3---3---3---3---3---3---3---3---3-----------|
G|---------------------------------------------------------------------------|
D|---------------------------------------------------------------------------|
A|-----------------0---0---0---0---2---2---2---2---4---4---4---4-------------|
E|-3---3---3---3-------------------------------------------------------------|
  And if I was stronger than I would up and go

e|---------------------------------------------------------------------------|
B|--3------------------------------3-----------------------------------------|
G|---------------------------------------------------------------------------|
D|---------------------------------------------------------------------------|
A|---------------------------------2-----------------------------------------|
E|--3------------------------------------------------------------------------|
  But here I am,                   And here we go again

[Bridge]

e|---------------------------------------------------------------------------|
B|---3---3---3---3---3---3---3---3---3---3---3---3---3---3---3---3-----------|
G|---------------------------------------------------------------------------|
D|---------------------------------------------------------------------------|
A|-----------------0---0---0---0---2---2---2---2---4---4---4---4-------------|
E|-3---3---3---3-------------------------------------------------------------|
                   Tell me what to do              to take away the you

e|---------------------------------------------------------------------------|
B|---3---3---3---3---3---3---3---3---3---3---3---3---3---3---3---3-----------|
G|---------------------------------------------------------------------------|
D|---------------------------------------------------------------------------|
A|-----------------0---0---0---0---2---2---2---2---4---4---4---4-------------|
E|-3---3---3---3-------------------------------------------------------------|
                   Take away the you,              take away the you

[Chorus]

e|---------------------------------------------------------------------------|
B|---3---3---3---3---3---3---3---3---3---3---3---3---3---3---3---3-----------|
G|---------------------------------------------------------------------------|
D|---------------------------------------------------------------------------|
A|-----------------0---0---0---0---2---2---2---2---4---4---4---4-------------|
E|-3---3---3---3-------------------------------------------------------------|
  And if I was stronger then I would tell you no

e|---------------------------------------------------------------------------|
B|---3---3---3---3---3---3---3---3---3---3---3---3---3---3---3---3-----------|
G|---------------------------------------------------------------------------|
D|---------------------------------------------------------------------------|
A|-----------------0---0---0---0---2---2---2---2---4---4---4---4-------------|
E|-3---3---3---3-------------------------------------------------------------|
  And if I was stronger than I would leave this show

e|---------------------------------------------------------------------------|
B|---3---3---3---3---3---3---3---3---3---3---3---3---3---3---3---3-----------|
G|---------------------------------------------------------------------------|
D|---------------------------------------------------------------------------|
A|-----------------0---0---0---0---2---2---2---2---4---4---4---4-------------|
E|-3---3---3---3-------------------------------------------------------------|
  And if I was stronger than I would up and go

e|---------------------------------------------------------------------------|
B|--3------------------------------3-----------------------------------------|
G|---------------------------------------------------------------------------|
D|---------------------------------------------------------------------------|
A|---------------------------------2-----------------------------------------|
E|--3------------------------------------------------------------------------|
  But here I am,                   And here we go again

            
            
Suggest correction
Creating personal tab
Creating personal tab
You can edit any tab online and save it as your Personal.

You can edit, replace or remove any tab part or add personal notes – all changes will be seen only by you.

Personal tabs can be accessed anytime from any device, even offline.
Learn more »
Give kudos to tab author, rate the tab!
1 2 3 4 5
comments
print report bad tab
guest
Wanna post a correction for this tab? Suggest correction