Oops, an error
Loading. Please wait.

The Way I Am bass

version 2
version 2

Whole song

  • This version includes the C# in the chorus that ot... Show more

Interactive

3,921 views 1 this week
1 commentread comment
1 2 3 4 5
2 more votes to show rating
add to favorites
×
Save as Personal and add changes to this tab that will be seen only by you. Learn more ›
×
You can save this tab as Personal to edit and correct it or add notes. All changes will be seen only by you. Learn more »
launch autoscroll
font size
0
reset
guitar tuner
edit
Autoscroll
slow
fast
+/-
esc
set tempo
stop
Difficulty
-----------------------------------------------------------------------------
                             The Way I Am - Ingrid Michaelson
-----------------------------------------------------------------------------

This is my first tab but I'm fairly sure it fits the song accurately and I thought it 
was more thorough than some of the other tabs for this song, so...ENJOY! :)

questions or comments? send me an e-mail!

Tabbed By: Jake Flint
e-mail: jflint94@gmail.com

Tuning: Standard (EADG)

Intro/Verse: 2x
G|--------------------------------------------------------------------------|
D|----------------0--0------------------------------------------------------|
A|--------0-1--1--------3--3------------------------------------------------|
E|--1--1----------------------0---------------------------------------------|

Pre-Chorus:
G|--------------------------------------------------------------------------|
D|----------------0--0------------------------------------------------------|
A|--------0-1--1--------3--3--0---------------------------------------------|
E|--1--1--------------------------------------------------------------------|

Chorus:
G|--------------------------------------------------------------------------|
D|----------------------0--0------------------------------------------------|
A|--1--1----3--3----------------------3--5---3------------------------------|
E|----------------1--1--------4--3--3------------0-1--1----1--1-------------|

Verse 2x

Pre-Chorus

G|--------------------------------------------------------------------------|
D|----------------------0--0------------------------------------------------|
A|--1--1----3--3----------------------3--5---3-----------------0-3----------|
E|----------------1--1--------4--3--3------------0-1--1----1-3--------------|

Verse 2x

Pre-Chorus


Outro:
G|--------------------------------------------------------------------------|
D|----------------3--3----0--0------------------0--0------------------------|
A|--1--1----3--3----------------3-1--1----3--3--------3--3--2-1--1----3--3--|
E|--------------------------------------------------------------------------|
                          B    C     F
G|------------------------4-----------3-------------------------------------|
D|--0--0------------------4----------3--------------------------------------|
A|--------3--3--2-1--1----6----3----5---------------------------------------|
E|--------------------------------------------------------------------------|

(The song ends with B C F chords on the guitar so I threw those in for some flair 
because it wraps it up fairly nicely)

| /  slide up
| \  slide down
| h  hammer-on
| p  pull-off
| ~  vibrato
| +  harmonic
| x  Mute note
=============================================================================

            
            
Suggest correction
Creating personal tab
Creating personal tab
You can edit any tab online and save it as your Personal.

You can edit, replace or remove any tab part or add personal notes – all changes will be seen only by you.

Personal tabs can be accessed anytime from any device, even offline.
Learn more »
Give kudos to tab author, rate the tab!
1 2 3 4 5
comments
print report bad tab
1 comment total.
0 reply
karmav 31 Jan 16, 2017 01:44 PM

Nice, but in the chorus it is a C# at "take". You can then go to the C before returning to the F or just hold the C#.

guest
Wanna post a correction for this tab? Suggest correction