Oops, an error
Loading. Please wait.

The Way I Am bass

version 3
version 3

Whole song

  • This version includes the C# in the chorus that ot... Show more

Interactive

94 views 1 this week
no commentswrite comment
1 2 3 4 5
2 more votes to show rating
add to favorites
×
Save as Personal and add changes to this tab that will be seen only by you. Learn more ›
×
You can save this tab as Personal to edit and correct it or add notes. All changes will be seen only by you. Learn more »
launch autoscroll
font size
0
reset
guitar tuner
edit
Autoscroll
slow
fast
+/-
esc
set tempo
stop
Author
Difficulty
About this tab version
This version includes the C# in the chorus that others leave out. You can go to the C after it as shown or just hang on the C# before retuning to the top. Was this info helpful? Yes No
Tuning: Standard (EADG)

[Intro] x2
G|--------------------------------------------------------------------------|
D|------------------0--0----------------------------------------------------|
A|----------1--1------------3--3--------------------------------------------|
E|--1--1--------------------------0-----------------------------------------|

[Verse 1]
G|--------------------------------------------------------------------------|
D|------------------0--0----------------------------------------------------|
A|----------1--1------------3--3--------------------------------------------|
E|--1--1--------------------------0-----------------------------------------|

G|--------------------------------------------------------------------------|
D|------------------0--0----------------------------------------------------|
A|----------1--1------------3--3--------------------------------------------|
E|--1--1--------------------------------------------------------------------|

[Chorus]
G|--------------------------------------------------------------------------|
D|----------------1--1--0--0------------------------------------------------|
A|--1--1---3--3---------------1--1---4-3------------------------------------|
E|-----------------------------------------1--1----1--1---------------------|
 
[Verse 2]
G|--------------------------------------------------------------------------|
D|------------------0--0----------------------------------------------------|
A|----------1--1------------3--3--------------------------------------------|
E|--1--1--------------------------0-----------------------------------------|

G|--------------------------------------------------------------------------|
D|------------------0--0----------------------------------------------------|
A|----------1--1------------3--3--------------------------------------------|
E|--1--1--------------------------------------------------------------------|

[Chorus]
G|--------------------------------------------------------------------------|
D|----------------1--1--0--0------------------------------------------------|
A|--1--1---3--3---------------1--1---4-3------------------------------------|
E|-----------------------------------------1--1----1--1---------------------|

[Verse 3]
(I like to do a walk-down during "losing all your" rather than 
just going to the E, but you can certainly play it as before):
G|--------------------------------------------------------------------------|
D|------------------0--0----------------------------------------------------|
A|----------1--1------------3--1-0------------------------------------------|
E|--1--1--------------------------------------------------------------------|

G|--------------------------------------------------------------------------|
D|------------------0--0----------------------------------------------------|
A|----------1--1------------3--3--------------------------------------------|
E|--1--1--------------------------------------------------------------------|

[Chorus]
(Repeat last half of chorus 3 times. During this, she mixes it up a little. 
I've seen lots of interpretations of it, but we just play it the same for 
simplicity's sake):
G|--------------------------------------------------------------------------|
D|----------------1--1--0--0------------------------------------------------|
A|--1--1---3--3---------------1--1---4-3------------------------------------|
E|-----------------------------------------1--1----1--1---------------------|

G|----------------------------|
D|----------------------------|
A|--1--1---4-3----------------|
E|---------------1--1----1--1-|

G|----------------------------|
D|----------------------------|
A|--1--1---4-3----------------|
E|---------------1--1----1--1-|

G|----------------------------|
D|----------------------------|
A|--1--1---4-3----------------|
E|---------------1--1----1----|

            
            
Suggest correction
Creating personal tab
Creating personal tab
You can edit any tab online and save it as your Personal.

You can edit, replace or remove any tab part or add personal notes – all changes will be seen only by you.

Personal tabs can be accessed anytime from any device, even offline.
Learn more »
Give kudos to tab author, rate the tab!
1 2 3 4 5
comments
print report bad tab
guest
You may want to rate the tab now too:
select rating
Wanna post a correction for this tab? Suggest correction